Šta je novo?
Hoyas
LEGEND
Učlanjen(a)
06.06.2009
Poruka
21.097
crvena jabuka :: volio bih da si tu

Intro:
Am D G Em Am D G Em
E|--------------------------------------------------------------------------|
H|--------------------------------------------------------------------------|
G|------------------9--9-7------------------------------9-7-----------------|
D|--------9^10-9-10--------10-9--10-9---------9^10-9-10-----10--9-7-9--10-9-|
A|-7-9-10------------------------------7-9-10-------------------------------|
E|--------------------------------------------------------------------------|

D Em H7 Em
E------------------------------------------------------|
H------------------------------------------------------|
G--9-7-------------------------------------------------|
D------10-9-7--9-10-9-----------------------7----------|
A----------------------10-9-7--9-10-9--9^10---10-9-7---|
E------------------------------------------------------|

Em
Volio bih da si tu,
D Em
Ove noci tako trebas mi
Am Em
Kao more mornaru
H7 Em
Nemam s kim nadu dijeliti
H7 Em
Dijeliti i sacuvati

Volio bih da si tu,
Nocni program je na radiu
Pustaju neku dragu muziku
Moje misli tebi putuju,
Putuju, da te pronadju

REFREN:
Am D G Em
Nocas zvijezde padat ce
Am D G Em
Jedna od njih nasa je
D Em
Jedna nosi utjehu
H7 Em
Ko u snu, volio bih da si tu

Volio bih da si tu
Ove noci da pricas mi
Slavili bi do zore
Svu bi njeznost svijeta popili
popili, pa se ljubili

REFREN

Dok zadnji put pjeva refren ubace jos ovaj solo u pozadini:

E|------------------12--12-10-------------------------------12-10-------------|
H|---------13-12-13-----------13-12--13-12---------13-12-13-------13--12-10-12|
G|-9-11-12---------------------------------9-11-12----------------------------|
D|----------------------------------------------------------------------------|
A|----------------------------------------------------------------------------|
E|----------------------------------------------------------------------------|

E|-------12-10------------------------------------------------|
H|-13-12-------13-12-10--12-13-12-----------------------------|
G|-------------------------------12-11-9--11^12^11--8-8^9-11--|
D|------------------------------------------------------------|
A|------------------------------------------------------------|
E|------------------------------------------------------------|
 
Hoyas
LEGEND
Učlanjen(a)
06.06.2009
Poruka
21.097
crvena jabuka :: vozovi polaze

Uvod:
|Gm |Eb | x puta

Gm Eb
Zvjezde ce ti pokazati put
Gm Eb
ti si njima sestrica
Gm Eb
jednog dana cu moci da kazem
Gm Eb
da si na mom nebu sijala

Jos dugo ces u sebi nositi znak
sve stidljive tragove
sva nasa jutra mazna i bijela
i noci pune pozude

D Gm
Vozovi polaze
D Gm
oni nece cekati
D Gm
koliko si mi znacila
D Gm
nikad neces saznati

D Gm
Vozovi polaze
D Gm
oni nece cekati
D Gm
koliko si mi znacila
D Eb
nikad neces saznati

Zvijezde ce ti pokazati put
sudbina me samara
jos nisam imao tu priliku i cast
da me sreca upozna

I zasto traziti rijeci
koje ne postoje
necu da kucam na vrata tvojih snova
vise tamo nema mjesta za mene
 
Hoyas
LEGEND
Učlanjen(a)
06.06.2009
Poruka
21.097
crvena jabuka :: vracam se tebi seko

C
Tog maglovitog jutra smo sjeli u ladju
F
staru teretnu sto prevozi gradju
G C
kapi kise radjale su grad.


Zaplovismo morem bez valova
F G
preko debelog kanala u luku spasa
C
za malo kruha i miran san.

F G
Kapetan stari je lulu cidija
C Am
kraj njega jos stariji brek je sidija
F G C
mene je sve vise lomila glad.

F G
Kihnija san, u prsima bol me cipala
C G/H Am G
u daljini svjetionik je lino sepa
F G C
iz obale se radja grad.


Sidjoh sa broda u staru luku
F G
djevojke me pocese hvatati za ruku
C
a ja sam ovdje trazio dom.


Pasa sam u ostariju trudnih dokera
F
tamo se pilo, igralo pokera
G C
te noci sam mislija o njoj i o starem kraju svom.


REFREN:(X2)
F G
Vracam se tebi seko
C G/H Am
makar mor´o plivajuci preko
G F G C
vracam se sekice.


SOLO:
F G C G/H Am G
F G C
F G C G/H Am G
F G C

C
Svratih u krcmu umornih dokera
F
tamo se pilo i igralo pokera
G C
te veceri sam mislija o njoj i o starom kraju svom.

F G
I o njenim crnim ocima
C Am
ca bez mene vec nocima
F G C C7
ne moru dotaknuti san.

F G
I o uvali maloj bistroga mora
C G/H Am G F
postenim ljudima i mirisu bora
G C
gdje samo plima remeti dan.


REFREN (X4)
 
Hoyas
LEGEND
Učlanjen(a)
06.06.2009
Poruka
21.097
crvena jabuka :: za svaku boru

uvod :
E||-------------|-------------|------------|--------------|
H||-------------|-------------|------------|--------------|
acustic G||--4-s-5---5--|--4-s-5---5--|-------7-v--|--5--5--2--0--|
git.1 D||--6-s-7---5--|--6-s-7---5--|-----5------|--7--5--3--2--|
A||-------------|-------------|--7---------|--------------|
E||-------------|-------------|------------|--------------|

F C Am C Am Am7 F C
E||-------------|-------------|------------|--------------|
H||-------------|-------------|------------|--------------|
acustic G||--4-s-5---5--|--4-s-5---5--|-------7-v--|--5--5--2--0--|
git.1 D||--6-s-7---5--|--6-s-7---5--|-----5------|--7--5--3--2--|
A||-------------|-------------|--7---------|--------------|
E||-------------|-------------|------------|--------------|
|| F C | Am C | Am Am7 | F C |
E||-------------|-------------|------------|--------------|
H||-------------|-------------|------------|--------------|
electric G||-14--12-v----|--~-~-~-~-~--|------------|-----------5--|
git.2 D||-------------|-------------|-12----10---|-10--9--7--5--|
A||-------------|-------------|------------|--------------|
E||-------------|-------------|------------|--------------|

C/G Cmaj7/B C
Evo prosao sam sve od mraka do svjetla,
Fsus4 F
u tvom srcu vise nisam nasao.
C/G Am C
Sad stojim tu na kraju tunela,
Fsus4 F G
oci me peku al' to suze nisu sigurno.

Solo 1 :
F C Am7 C
E||------------------------
H||------------------------
electric G||--14--12v--12/14--------
git.2 D||------------------14----
A||------------------------
E||------------------------

C/G Cmaj7/B C
Jos jedan cudan ljetni dan od sunca i kise,
Fsus4 F
zemlja se okrece i sve je isto.
C/G Am C
Cudno je to sto te ne volim vise,
Fsus4 F G
a mislio sam da cu da poludim nacisto.

C
Za svaku boru na mom licu,
Am F C
ti si kriva ali ne znas za to.
C Am7 C
I svaku pjesmu koju pjevam,
Am F C
tvojim sam poljupcima pisao.

C
Za svaku boru na mom licu,
Am F C
ti si kriva ali ne znas za to.
C Am7 C
I svaku pjesmu koju pjevam,
Am F C
tvojim sam poljupcima pisao.

Solo 2 :
F C Am C Am Am7 F C
E||----------|-----------|-----------------|---------------|
H||--10--8---|--8/10-----|-----------------|------------5--|
G||----------|-------9v--|-10--10/12--10v--|--10--9--7--5--|
D||----------|-----------|-----------------|---------------|
A||----------|-----------|-----------------|---------------|
E||----------|-----------|-----------------|---------------|
electric
git.2 F C Am C Am Am7 F C
E||----------|--10--8----|-----------------|---------------|
H||--10--8---|--------8--|-----------------|------------5--|
G||----------|-----------|-10--10/12--10v--|--10--9--7--5--|
D||----------|-----------|-----------------|---------------|
A||----------|-----------|-----------------|---------------|
E||----------|-----------|-----------------|---------------|

C/G Cmaj7/B C
Jos jedan cudan ljetni dan od sunca i kise,
Fsus4 F
zemlja se okrece i sve je isto.
C/G Am C
Cudno je to sto te ne volim vise,
Fsus4 F G
a mislio sam da cu da poludim nacisto.

C
Za svaku boru na mom licu,
Am F C
ti si kriva ali ne znas za to.
C Am7 C
I svaku pjesmu koju pjevam,
Am F C
tvojim sam poljupcima pisao.

C
Za svaku boru na mom licu,
Am F C
ti si kriva ali ne znas za to.
C Am7 C
I svaku pjesmu koju pjevam,
Am F C
tvojim sam poljupcima pisao.

Solo 3 :
F C G D F C
E||------------|-----------|------------------|
H||------------|--8--7-----|--10v--10--8------|
G||--10--9-----|--------7--|---------------9--|
D||--------10--|-----------|------------------|
A||------------|-----------|------------------|
E||------------|-----------|------------------|
electric
git.2
F C G D F
E||------------|-----------|------------------|
H||------------|--8--7-----|--10v--12--13-15--|
G||--10--9-----|--------7--|------------------|
D||--------10--|-----------|------------------|
A||------------|-----------|------------------|
E||------------|-----------|------------------|

C
Za svaku boru na mom licu,
Am F C
ti si kriva ali ne znas za to.
C Am7 C
I svaku pjesmu koju pjevam,
Am F C
tvojim sam poljupcima pisao. . . . 3 X


E A D G H E
-------------
C/G : 3 3 2 0 1 0
G : 3 2 0 0 3 3
Am : 0 0 2 2 1 0
Am7 : X 0 2 0 1 0
Cmaj7/B : x 2 2 0 1 0
Fsus4 : 1 1 3 3 1 1
 
Hoyas
LEGEND
Učlanjen(a)
06.06.2009
Poruka
21.097
crvena jabuka :: za sve ove godine

G
Jos je kod tebe dobro i toplo
Em
Jos na uzivanje ti mirise soba
C D Em
Ali nikad dalja nisi bila mi.


Kroz kolut plavog dima
Vidim ti oci i suze u njima
Zatvori prozor, nocas ce padati.


D C
A ti, ti bi da me poljubis
D
I da nazdravis.


C D G Em
Za sve ove godine
C D G Em
Sto su te promijenile
C D G Em
Za sve ove poljupce
C D G Em
Za sve sto mi dugujes
D
Hoces opet
D
Hoces da me napijes.


Em C D 4x


Cigare su dogorjele
Rijeci vise nista ne znace
Samo malo tihe muzike u sobi.

Kroz kolut plavog dima
Vidim ti oci i suze u njima
Zakljucaj vrata, necu se vratiti.

A ti, ti bi da me poljubis
I da nazdravis

...
 
Hoyas
LEGEND
Učlanjen(a)
06.06.2009
Poruka
21.097
crvena jabuka :: zovu nas ulice

Uvod: E7

REF: A D E A D E
Zovu nas u_li_ce, idemo na napolje
Potpetice zvec-zveckaju, uzbudjenje djevojke trebaju

A-E-D-A
u,u,u,a,a,a -2x

A E D E A E D E
Poslije ljubavi sta ostavljas, da li brzo me zaboravljas
I koga sada zelis ti, ko ti u snove dolazi
Telefoni vise ne vrijede i adrese polako blijede
Ovdje tvoj sal i sminka, sto sitnica, nekoliko razglednica

F#m D E F#m D E
Dah proslog vremena, sad je daleko za nama...

REF

Zadnje rijeci prije odlaska, gorak ukus na usnama
Osjeti kad zudnju probude sve izgubljene godine
Samnom u sobi samo tisina i na casi trag karmina
Ova boja danasnja bit ce sutra drugacija
Dah proçlog vremena, sad je daleko za nama...
 
Hoyas
LEGEND
Učlanjen(a)
06.06.2009
Poruka
21.097
crvena jabuka :: zvona zvone

Gm Cm
Zvona zvone i grad tone
Eb D
u noc, i mi s njim
Gm Cm
sirom oci ove noci
Eb D
glupo je spavati
D [Gm (Bb) Cm D] => x puta
dok srce govori

Gm (Bb) Cm D Gm (Bb) Cm D ....
Opet iste stvari pisu novine
kazes pravim zbrku bez potrebe
nebo sprema kisu ,vrijeme mijenja se
kako razbiti sate dosade

Tebe tako malo stvari i nervira
tebi svijet je sarena slikovnica
tvoja koljena haljina otkriva
za divne stvari ti si stvorena

Eb D
Opasno te satriraju
Eb D
da dobra djeca sad spavaju

Gm Cm
Zvona zvone i grad tone
Eb D
u noc, i mi s njim
Gm Cm
sirom oci ove noci
Eb D
glupo je spavati

D Gm (Bb) Cm D Gm (Bb) Cm D
dok srce govori ... sta treba raditi

Opet bole me stare gluposti
pravila su tu, pocni igrati
pali vatra sa tvojih obraza
tvoje tijelo zove i provocira
 
Top