Šta je novo?
Hoyas
LEGEND
Učlanjen(a)
06.06.2009
Poruka
21.097
crvena jabuka :: suzo moja strpi se

Dani lose, blijedo sivi C#m G#7
u meni opet ocaj zivi E C#m5/F
gorak ukus moje slabosti F#m G# C#m A^G#

Dok me trebas trpis me C#m G#7
bez imalo istine E C#m5/F
u tvom oku gore baklje pakosti F#m G# C#m

suzo moja strpi se B C#m
ne daj da te primjete B G#

Vragu rep sam vezao
parazite zezao
bjezao na modre obale

iz zavjese tisine
neka te sve nocas brine
mislis dobro bice najgore

suzo moja strpi se
ne daj da te primjete

mene nece mjenjati E B E B
ja se ne znam s mrznjom druziti E B E C#m5/F
do suncevog plamena F#m G#
i pred ???? vremena C#m ???
svi idu bez razlike G#
suzo moja strpi se

gdje od zlobe pobjeci
i u miru dotaci
usne oci drage djevojke

svijet me mnogo ????
pricam ???? svuda vi
ali s ovom pricom provjeri

suzo moja strpi se
ne daj da te primjete
 
Hoyas
LEGEND
Učlanjen(a)
06.06.2009
Poruka
21.097
crvena jabuka :: sve sto imas ti

jutros kroz prozor odskrinut A E F#m D..
i kroz se pjesma se provukla
da lopov stari nadje put
i vrijeme kada doskita
moja ljubavi.. ljubavi

i baca trista godina,
mrtvog mraka u sebi
sreca na mojih dlanova
uredno ne prolazi
moja ljubavi... ljubavi


Zelja svanula, E D
sa mog jastuka F#m B
govori,


sve sto imas ti, nada zove se, A E F#m D
sve sto imam ja, moli za tebe
sve sto imas ti, cista je kemija
koja treba mi, sada ko nikada

Rucak i slatke ????
davno sam ja uzeo,
i dao svom malom andjelu,
koji me uz rijeku poveo,
moja ljubavi... ljubavi

A vrijeme nezgodno skroz,
i ljudi ljigavi,
bojim se da ne postoji voz,
koji smo cekali,
moja ljubavi... ljubavi

Zelja svanula,
sa moga jastuka,
govori
 
Hoyas
LEGEND
Učlanjen(a)
06.06.2009
Poruka
21.097
crvena jabuka :: sve sto sanjam

E H C#m A H

E H C#m
Sjene se sklapaju dok promicu
A G#m F#m
tijela se njisu i dodiruju
H F#m
oci ti ugledam pa uzmaknem
A H
pustam da me nosi

Iz tvog sam srca pticu ukrao
na rame mi je sama sletjela
iz grla joj je pjesma potekla
kanula na grudi

ref:
E C#m
Sve sto zelim sve sto sanjam
A E
nikada necu moci sam
E H C#m 2x
dodji i ostani uz mene
A E H
neka se sklope nase sjene

Pogledaj kako idu godine
koliko ih je nama ostalo
sutra ce zima mozda proljece
Bog i vrag to znaju

Sjene se sklapaju dok promicu
tijela se njisu i dodiruju
oci ti ugledam pa uzmaknem
pustam da me nosi

ref:
E C#m
Sve sto zelim sve sto sanjam
A E
nikada necu moci sam
E H C#m 2x
dodji i ostani uz mene
A E C#
neka se sklope nase sjene

ref2:
F# D#m
Sve sto zelim sve sto sanjam
H F#
nikada necu moci sam
F# C# D#m 2x
dodji i ostani uz mene
H F# C#
neka se sklope nase sjene


***VERZIJA 2***
Transkripcija: DRC


UVOD: E H C#m A H

:-4-----4---4-----------4--------9--------9-9h12-----5/7--7-7/5-5--
:-----5---7---7-5-5---5----------------12------------7/9--9-9/7-7--
:---4-----4---------4----------------9-----------------------------
:------------------------------------------------------------------ 2x
:-----------------4--------------0---------------------------------
:-0----------------------------------------------------------------

:-4-----4---4-----------4--------9--------9-9h12--------7---5---4--
:-----5---7---7-5-5---5----------------12---------------9---7---5--
:---4-----4---------4----------------9--------------6/8---8---6----
:------------------------------------------------------------------
:-----------------4--------------0---------------------------------
:-0----------------------------------------------------------------

:-4-----4---4-----------4--------9--------9-9h12----5/7--12-12/10-10-9----
:-----5---7---7-5-5---5----------------12-----------7/9----------------10-
:---4-----4---------4----------------9------------------------------------
:-------------------------------------------------------------------------
:-----------------4--------------0----------------------------------------
:-0-----------------------------------------------------------------------
 
Hoyas
LEGEND
Učlanjen(a)
06.06.2009
Poruka
21.097
crvena jabuka :: svidja mi se ova stvar

C
Svidja mi se ova stvar
F G
ova stvar
C
staru ceznju budi mi
F G
budi mi
C
Svidja mi se ova stvar
F G
ova stvar
C
noc je vrela vrela ti
F G
vrela ti
C
hajde mala daj mi daj
F G
daj mi daj
C
tako njezna ostani
F G
osta - ni

Svidja mi se ova stvar
staru ceznju budi mi
Ja ne spavam nocima
ti si moje slatko zlo
Pozuda u ocima
daj odvrni radio

Jer svidja mi se ova stvar
budi stare ljubavi
Pritisle su godine
dal ces sa mnom ostati

G
aa aaa aaaaa aaaaaa aaaaaaaaaaa

Bas je dobar ritam taj
mogli bi zaplesati
I ja sam ko barut suh
lako me zapaliti

Svidja mi se ova stvar
staru ceznju probudi
daj odvrni radio
da komsiluk poludi

Svidja mi se ova stvar
Svidja ti se ova stvar...


Uvod
-----------------------------
-----------------------------
-----------------------2--0--
--------------2-----4--------
-----0--2--3-----3-----------
--3--------------------------

Mali solo
----------------------------------------------------------------------
----------------------------------------------------------------------
-----------------------2--0--------------------------2--0-------------
--------------2-----4--------4--4--3--0-----2-----4--------4--4--3--0-
-----0--2--3-----3-----------------------3-----3----------------------
--3-------------------------------------------------------------------
 
Hoyas
LEGEND
Učlanjen(a)
06.06.2009
Poruka
21.097
crvena jabuka :: tamo gdje ljubav pocinje

Intro:
E--12-12-12-12-11--------------12-------------|
B-----------------12-9-12b14~-----14r12-12----|
G---------------------------------------------|
D---------------------------------------------|
A---------------------------------------------|
E---------------------------------------------|

E--12-12-12-12-11--------------12-------------|
B-----------------12-9-12b14~-----14r12-10-12-|
G---------------------------------------------|
D---------------------------------------------|
A---------------------------------------------|
E---------------------------------------------|

E---------------------------------------------|
B--12b14r12-10-9--7-9-9h10\5--10p9p7--9\(7)\5-|
G---------------------------------------------|
D---------------------------------------------|
A---------------------------------------------|
E---------------------------------------------|

F#m
Sjeti li te dah ljeta
C#m
i pjesme uz gitaru
A E
Kad se djeca ljube
A H
i mirise na travu

Jos smo broj ovog kraja
guzva nam je poznata
Beskrajna zezanja
i partije pokera

Sve sam igre odigrao
otkada si otisla
Vrh i dno dotakao
na milion nacina

Pamtim smijeh tvoje suze
svaka rijec zakletva
Nitko ne zna kako pece
i ledi dok ne proba

REF:
A E
Zapjevaj nasu pjesmu
A E
Meni i tebi rijeci poznate
C#m A
Cekam te na starom mjestu
H E
Tamo gdje ljubav pocinje


E--12-12-12-12-11--------------12-------------|
B-----------------12-9-12b14~-----14r12-12----|
G---------------------------------------------|
D---------------------------------------------|
A---------------------------------------------|
E---------------------------------------------|

E--12-12-12-12-11--------------12-------------|
B-----------------12-9-12b14~-----14r12-10-12-|
G---------------------------------------------|
D---------------------------------------------|
A---------------------------------------------|
E---------------------------------------------|

E-----------------------------------------------|
B--12b14r12-10-9--7-9-9h10\5--10p9p7--7/9*-7-5--|
G-----------------------------------------------|
D-----------------------------------------------|
A-----------------------------------------------|
E-----------------------------------------------|

9* jako kratko

Sjeti li te miris zime,
ocajan bez snijega januar
Kad se magle sive spuste
i svaki dan je umoran

Sarajevsko kisno jutro
jos mi broji korake
Kad rijetke ptice i
cistace ulice zagrle

Sve sam ceste prosao
otkada si otisla
Malo sunca sacuvao
na dnu starog kofera

Pamtim smijeh, tvoje suze,
svaka rijec, zakletva
I nitko ne zna kako pece
i ledi dok ne proba


2x REF,
REF+solo,

2x
E--------12-12-11--------------12-------------|
B-----------------12-9-12b14~-----14r12-12----|
G---------------------------------------------|
D---------------------------------------------|
A---------------------------------------------|
E---------------------------------------------|

E--12-12-12-12-11--------------12-------------|
B-----------------12-9-12b14~-----14r12-10-12-|
G---------------------------------------------|
D---------------------------------------------|
A---------------------------------------------|
E---------------------------------------------|

E-------------------------------------7----------|
B--12b14r12-10-9--7-9-9h10\5--10p9p7--7b9-5h7p5--|
G------------------------------------------------|
D------------------------------------------------|
A------------------------------------------------|
E------------------------------------------------|


outro:
E--------12-12-11--------------12-------------|
B-----------------12-9-12b14~-----14r12-12----|
G---------------------------------------------|
D---------------------------------------------|
A---------------------------------------------|
E---------------------------------------------|

E--12-12-12-12-11--------------12-------------|
B-----------------12-9-12b14~-----14r12-10-12-|
G---------------------------------------------|
D---------------------------------------------|
A---------------------------------------------|
E---------------------------------------------|

E-----------------------------|
B--12b14r12-10-9--7-9-9h10/14-|
G-----------------------------|
D-----------------------------|
A-----------------------------|
E-----------------------------|


E--------12h14-15b17~--12--14h16-14-12-11------------12-------|
B--14h17----------------------------------12-9-12/14----14-12-|
G-------------------------------------------------------------|
D-------------------------------------------------------------|
A-------------------------------------------------------------|
E-------------------------------------------------------------|

E--12-12-12-12-11--------------12-------------|
B-----------------12-9-12b14~-----14r12-10-12-|
G---------------------------------------------|
D---------------------------------------------|
A---------------------------------------------|
E---------------------------------------------|

E-----------------------------|
B--12b14r12-10-9--7-9-9h10/14-|
G-----------------------------|
D-----------------------------|
A-----------------------------|
E-----------------------------|


***VERZIJA 2***


INTRO: B E A E A E C#m A H E

[F#m]Sjeti li te dah ljeta [C#m] pjesme uz gitare
[A]Kad se djeca[E] ljube i [A]mirise na[H] trave
Jos smo broj ovog kraja guzva nam je poznata
Beskrajna zezanja i partije pokera

Sve sam igre odigrao otkada si otisla
Vrh i dno dotakao na milion nacina
Pamtim smijeh tvoje suze svaka rijec zakletva
I nitko ne zna kako pece i ledi dok ne proba

[E]Zapje[A]vaj nasu [E]pjesmu
Meni i[A] tebi rijeci pozna[E]te
Cekam [C#m]te na starom [A]mjestu
Tamo gdje [H]ljubav pocinje[E]

Sjeti li te miris zime, dosadan bez snijega januar
Kada se magle sive spuste i svaki dan je sumoran
Sarajevsko kisno jutro jos mi broji korake
Kad rijetke ptice i cistace ulice zagrle

Sve sam ceste prosao otkada si otisla
Malo sunca sacuvao na dnu starog kofera
Pamtim smijeh, tvoje suze, svaka rijec, zakletva
I nitko ne zna kako pece i ledi dok ne proba



***VERZIJA 3***



[Gm] [Dm]
Sjeti li te dah ljeta i pjesme uz gitare
[F] [C]
Kad se djeca ljube i mirise na trave
[Gm] [Dm]
Jos smo broj ovog kraja, guzva nam je poznata
[F] [C]
Beskrajna zezanja i partije pokera

Sve sam igre odigrao otkada si otisla
Vrh i dno dotakao na milion nacina
Pamtim smjeh, tvoje suze, svaka rijec zakletva
Niko ne zna kako pece i ledi dok ne proba

REF:
[F] [F]
Zapjevaj nasu pjesmu, meni i tebi rijeci poznate
[Dm] [C] [F]
Cekam te na starom mjestu, tamo gdje ljubav pocinje

Sjeti li te miris zime, ocajan bez snjega januar
Kad se magle sive spuste i svaki dan je umoran
Sarajevsko kisno jutro jos mi broji korake
Kad rijetke ptice i cistace u lice zagrle

Sve sam ceste prosao otkada si otisla
Malo sunca sacuvao sa mog starog kofera
Pamtim smjeh, tvoje suze, svaka rijec zakletva
Niko ne zna kako pece i ledi dok ne proba
 
Hoyas
LEGEND
Učlanjen(a)
06.06.2009
Poruka
21.097
crvena jabuka :: tebi je do mene stalo

Dm Bb A Dm
E|--------------1------------1------------0-------0^1^0-----------------1--
B|------------3----------3------------2---------3-------3------------3-----
G|----------2----------3---3--------2---2-----2-----------2-0------2---2---
D|--------0----------3------------2---------0-----------------3--0---------
A|-------------------------------------------------------------------------
E|-------------------------------------------------------------------------
Poklopi ulicu plafonkama da ti cujem korake Pa malo dijete,

Bb A Dm F C
E|-------------1-----------0---------0^1^0----------------1-----------0------
B|---------3-----------2-----2--2---3-----3------------1----1---1---1--1-----
G|-------3---3-------2---2-----2---2-------2-0-------2---2----2----0-0-------
D|-----3-----------2--------------0-----------3------------------------------
A|-------------------------------------------------3-------------3------3-2--
E|--------------------------------------------------------------------------
malo dama, to je formula za uzdahe. S malo sanse sve dilizanse

A Bb Bbmaj7 A
E|----------0--------------------------------------------------------
B|------2-----2---2---------3--------------3---------------3---------
G|----2---2-----2-------3-----3---3-----2----2---2-----3-----3---3---
D|--------------------3---3-----3-----3---3----3-----3---3-----3-----
A|--0---------------1---------------2--------------0-----------------
E|-------------------------------------------------------------------
putuju kroz pustinje. Al cuvaj nadu da je bol ne

Dm
E|----------0^1^0---------------|
B|--------3-------3-------------|
G|------2-----------2-0---------|
D|----0-----------------3-2-0---|
A|------------------------------|
E|------------------------------|
ubije


Ne pricaj nista pusti rijeci
Ti si meni rekla sve
Ti kad ljubis ko da ljecis
Jer to oci govore

Kad ne sutis e tad lazes
A kad lazes lazes sve
Cuvaj nadu
Da je bol ne ubije


REFREN:
Gm Dm
E|----------------------------------------------------------------------------
B|-----------3-3-3---3-3-3---3-3-3---3-3-3----6-6-6---6-6-6---6-6-6---6-6-6---
G|-----------3-3-3---3-3-3---3-3-3---3-3-3----7-7-7---7-7-7---7-7-7---7-7-7---
D|----------------------------------------------------------------------------
A|------------------------------------------5-------5-------5-------5---------
E|---------3-------3-------3-------3------------------------------------------
Sad ili noc da ljubis il da places, sad ili to tek malo il nesto jace

C F
E|----------------------------------------------------------------------------
B|---------1-1-1---1-1-1---1-1-1--1-1-1------1-1-1---1-1-1---1-1-1---1-1-1----
G|---------0-0-0---0-0-0---0-0-0--0-0-0------2-2-2---2-2-2---2-2-2---2-2-2----
D|----------------------------------------------------------------------------
A|-------3-------3-------3-------3--------------------------------------------
E|-----------------------------------------1-------1-------1-------1----------
Sta mi znaci to ja te volim najjace ti moje


E|-------------------------------------1------1------1-------0------0---1-0--
B|------3-------3-------3-------3--------3------3------3-------3----2---3-2--
G|----3---3---3---3---3---3---3---3--------2------2------2-------2--2---3-2--
D|--5-------4-------3-------2--------0------------------------------2---3-2--
A|-------------------------------------------3------1------0--------0---1-0--
E|------------------------------------------------------------------0---x-0--
srce nisi uzela na malo tebi je do mene stalo

Dm
E|---------------0^1^0------------------------------
B|-------------3-------3----------------------------
G|-----------2-----------2-0-2---2-0----------------
D|---------0-------------------3-----3-2-0----------
A|-----------------------------------------3-2------
E|--------------------------------------------------
Znam da je
 
Hoyas
LEGEND
Učlanjen(a)
06.06.2009
Poruka
21.097
crvena jabuka :: ti mi dusu uzimas

Uvod: Am Am7

Am
Dugo vec hladim se na vjetru
G
Od tvojih moci
Dm (G) Am
Od ludih zelja koje furala si meni
Am
Pusem u zaledjenu cesmu
G
Uzalud sve
Dm (G) Am
Jer tebe svaka moja slabost zacrveni.

Em F
Bacam jos jednom
Bb Am
Rasute misli u tvoje krilo
Am F
Gledas kroz mene
Bb Em
Tu nikad niceg nije ni bilo.


Ref:

Em Am
Ti mi dusu uzimas
G Dm
To radis najbolje, to znas
Am
Cijelim tijelom uzivas
G Dm
To radis najbolje, to znas.


Temperatura ispod nule
Ulica hoda
A noge teske kao prikovane stoje


U magli zagrljene kule
U glavi voda
Sve sto si uzela i tako nije moje.


Bacam jos jednom
Raspuklo srce u tvoje krilo
Gledas kroz mene
Tu nikad niceg nije ni bilo.

Ref: x-puta
 
Hoyas
LEGEND
Učlanjen(a)
06.06.2009
Poruka
21.097
crvena jabuka :: ti si lijepa

/ uvod D-F#-Hm-G-D-A-D /

D A Hm G
zazmiri i zazeli zelju ljubavi i prijatelju
D A Hm G D
ne mozes ni zamisliti sto ne mogu ispuniti ja
F# Hm G
kada volim nekoga

rastuzila si neko dijete otkud ovoliko sjete
normalno je da te brine jer na srcu pukotine sve
sve su bolnije

D F# Hm G
ti si lijepa, mlada i pametna
D A D A
ja te volim i sretan sam zbog toga
ti si lijepa, mlada i pametna
daj mi jedan osmijeh molim te k’o boga

ma gdje bilo da se rodis sve je lakse kada volis
tesko mi je objasniti, tesko te je ubjediti da
jer nisi probala

draga mi je zivot prijetnja nego poslastica ljetnja
dok jos mozes uzivaj svoje zelje ne skrivaj ne
ja u tebe vjerujem

ti si lijepa, mlada i pametna...

/ solo klavijature / D-A-Hm-G-D-F#-Hm

ti si lijepa, mlada i pametna...2x

***VERZIJA 2***
Transkripcija: Vatroslav Haramustek


D A
Zazmiri i zazeli zelju
Hm G
Ljubavi i prijatelju
D A
Ne mozes ni zamisliti
Hm G
Sve sto mogu ispuniti ja
D F#m Hm G
Kada volim nekoga

Rastuzila si meko djete
Otkud ovoliko sjete
Normalno je da te brine
Jer na srcu pukotine sve
sve su bolnije

REF:
D A Hm G
Ti si lijepa, mlada i pametna
D A D A
Ja te volim i sretan sam zbog toga
D A Hm G
Ti si lijepa, mlada i pametna
D A D A
Daj mi jedan osmjeh molim te ko Boga


Ma gdje bilo da se rodis
Sve je lakse kada volis
Tesko mi je objasniti
Tesko te je uvjeriti da
Jer nisi probala

Draga mi je, zivot prijetnja
Nego poslastica ljetna
Dok jos mozes uzivaj
Svoje zelje ne skrivaj ne
Ja u tebe vjerujem

REF:

Solo Klavijatura

REF: x3
 
Hoyas
LEGEND
Učlanjen(a)
06.06.2009
Poruka
21.097
crvena jabuka :: ti znas

INTRO: D Dmaj7 D Dmaj7 G

D Dmaj7 D Dmaj7 G....
sanjam, sanjam osmijeh tvoj vec dugo ja
zelja, na krilima zlatnog goluba nosena
jutra, jutra vlaznih ulica vode me
do tebe, do tvojih zjenica i dalje
i dalje


A G A
boze, kako teska godina


D
ti znas ko je ludjak na kisi
G
ispod tvog prozora
D
ti znas ko je kad telefon zvoni
G
ko na tvoje molim vezu prekida
D
ti znas cija si velika bol
G
i ko zbog tebe pravi gluposti
D
drugi ce tvoju ruku da cuva
G
i drugi ce tebe voljeti
A
al' kao ja - niko nikada

D Dmaj7 D Dmaj7

G
ti znas

D Dmaj7 D Dmaj7

G
ti znas


cekam, cekam, a raskrsca moj su dom
ja i ti smo vezani zauvijek istim snom
putevi, na kojima nema stanica vuku me
do tebe, do tvojih zjenica i dalje
i dalje

boze, kako teska godina
 
Hoyas
LEGEND
Učlanjen(a)
06.06.2009
Poruka
21.097
crvena jabuka :: to mi radi

B=H
AKORDI: |E |C#m |A |B |

E C#m
Volim te, djevojcice,
A B
dok se nebo zatvara.
Ma neka vriste nase ulice,
neka krene zabava,
bolja buducnost nije htjela
nas da saceka
Pridji blize
da vidim tajnu
koju cuvas u ocima

E C#m
To mi radi,to mi radi,
A B
jer ti mozes da mi radis sve,
to mi radi,to mi radi,
jer ja zaljubio sam se.

Iza ugla cujem muziku,
generacija je cugala,
A ja sam nocas slican urliku,
moje je ime teska panika.
Kad me palis,
onda idi, plovi do kraja,
pridji blize da vidim tajnu
koju cuvas u ocima,


***VERZIJA 2***
Transkripcija: ivan3


E C#m A H
----------------------------------------------------------2-------
------5-----5---------5-----5---------5-----5---------5-----5---5-
----4-----4-----4---4-----4-----4---4-----4-----4---4---4-----4---
--2-----2-----2---------------------------------------------------
------------------4-----4-----4-------------------2---------------
----------------------------------5-----5-----5-------------------
(preuzeto iz "Skola za rock gitaru, 2.dio", Ladislav Racic)

a moze i ovako (nije kao u originalu, ali su iste note i mnogo je
jednostavnije):

E C#m A H
------0-----0---------0-----0---------0-----0---------0---2-0---0-
----0-----0-----0---0-----0-----0---0-----0-----0---0---0-----0---
------------------------------------------------------------------
--2-----2-----2---------------------------------------------------
------------------4-----4-----4---0-----0-----0---2---------------
-(0)---(0)---(0)--------------------------------------------------


radi jos vece jednostavnosti, moze se svirat bas od E-dura u zagradama,
ali onda su te note za oktavu nize nego u originalu.



***VERZIJA 3***



SOLO:
||---------------|-11h12p11---------------|---------------|----------------------|
||---12b r 12vvv |----------12p 912bv—-10h|12p10\9--10—-9h|10p9------------------|
||---------------|------------------------|---------------|------11--9--11----/16|
||---------------|------------------------|---------------|----------------------|
||---------------|------------------------|---------------|----------------------|
||---------------|------------------------|---------------|----------------------|

||---------------|19—16h17--16------------|-----------------|--------16-19brb----|
||-17--19---19b--|----------------19--17--|16h17p16-------16|--17----------------|
||---------------|------------------------|-----------18----|--------------------|
||---------------|------------------------|-----------------|--------------------|
||---------------|------------------------|-----------------|--------------------|
||---------------|------------------------|-----------------|--------------------|

||---------------|
||19b -r-17 vvvvv|
||---------------|
||---------------|
||---------------|
||---------------|



***VERZIJA 4***
Transkripcija: Kristijan


Posljednji solo u pjesmi:
E||---------------|-----------------------|---------------|-12-11-------------------|
B||-12b14r12~~----|-12-10s9-5~~--5s7~~----|-12b14r12~~----|-------12-12s14-16s14-12-|
G||---------------|-----------------------|---------------|-------------------------|
D||---------------|-----------------------|---------------|-------------------------|
A||---------------|-----------------------|---------------|-------------------------|
E||---------------|-----------------------|---------------|-------------------------|

E||-19b21r19~~----|-19-17-16--------------|-19b21r19~~----|-24-23-19-21-21s23--19~~-|
B||---------------|----------17~-17s19s12-|---------------|-------------------------|
G||---------------|-----------------------|---------------|-------------------------|
D||---------------|-----------------------|---------------|-------------------------|
A||---------------|-----------------------|---------------|-------------------------|
E||---------------|-----------------------|---------------|-------------------------|

E||-14b16r14-12~~~|
B||---------------|
G||---------------|
D||---------------|
A||---------------|
E||---------------|
 
Top