Šta je novo?
Hoyas
LEGEND
Učlanjen(a)
06.06.2009
Poruka
21.097
crvena jabuka :: tuga, ti i ja

B=H


|Em |D |Am G |D | x puta

Em
Evo me noci,
G Em
stara prijateljice.
Em
Opet njoj cu poci,
G Em
Niz duge, puste ulice.

Am D
Tamo gdje strahovi prestaju,
D Em
obraz mi grije njen dlan.
Am Em
Na njemu moje usne nestaju,
B
Beskrajno sam, uzdah joj znam.

|Em |D |Am G |D | x puta

Casti me noci,
stara prijateljice.
U casu natoci,
zudnju da mi slomije.

Zar nisam dovoljno gubio,
ko ce izmjeriti bol.
Do ocaja ljubio,
namjerno bjezao, da bih se vracao.


Em G D Em
Opet mi se budi tuga, tuga najveca.
Em G D Em
Koju nosi snijeg s planina, vjetar ravnica.
Am D G D/F# Em
Koga sad joj srce voli, kazi nek jos jace boli.
Am D Em (+ B pri kraju pjesme)
Idemo do dna, tuga, ti i ja.


|Em |D |Am G |D | x puta +
|Em | |Am G |D | x puta

Pozdravljam te noci,
stara prijateljice.
I ovaj krug ce proci,
Nece stic' me kajanje.

Sta je ovo proljece,
spram njeznih godina.
Poziv njen me pokrece,
Cak i sa dna, isto izgleda.

Opet mi se budi tuga ... x2

OUTRO:
Em D Am Am-G D
Tuga, ti, i ja,
Em D Am Am-G D
Tuga, ti, i ja,
Em D Am Am-G D
Tuga, ti, i ja,
Em D Am Am-G D
Tuga, ti, i ja ...




***VERZIJA 2***
Transkripcija: Adi


Uvod:
E|---<7>-----------<7>--<12>----|-------------------0--------------|
B|---<7>--------<7>-------------|--------------------3-----3/5-----|
G|---<7>-----<7>----------------|------0---------0----0----0/0-----|
D|------------------------------|----4---4------4-------4--4/6-----|
A|------------------------------|--5-------5---5---------5-5/7-----|
E|------------------------------|----------------------------------|

E|----------------------|--8-7-------------------| |-------------------------------|
B|----------------------|-----8------------------| |-------------------------------|
G|----------------------|------9~---12~\7~-/12\5-| |--4x-2----------7-4~-----------|
D|--2/4----------7------|------------------------| |-------4-4-5-7-----------------|
A|--3/5---9-9-10--------|------------------------| |-------------------------------|
E|----------------------|------------------------| |-------------------------------|


Bridge:
E|----0x----0---2-----------------|
B|----0x----0---3---7^8^7---------|
G|----0x----0---2---------9-7-----|
D|--2-2x--2-2---0-------------9-7-|
A|--2-2x--2-2---------------------|
E|--0-0x--0-0---------------------|

E|----0x----0---2-----------------|
B|----1x----1---3---7^8^7---------|
G|--2-2x--2-2---2---------9-7-----|
D|--2-2x--2-2---0-------------9---|
A|--0-0x--0-0---------------------|
E|--------------------------------|
 
Hoyas
LEGEND
Učlanjen(a)
06.06.2009
Poruka
21.097
crvena jabuka :: tugo, nesreco

Gm Cm Gm
Ona dolazi, jednostavno osjetim,
Eb D Gm
mozda mi sapne, snijeg sa grane,
Gm Cm Gm
sta mi donosi - kusur od ljubavi
Eb D Gm
il malo srece minulih dana

Eb D
ne znam kako, al znam, ona dolazi.

Kad suze govore, istina razvaljuje,
i svaka rijec, me obori s nogu
to sto si varala, to bih ti oprostio,
al sto si mene, to ne mogu.

Cm Gm Eb F Bb
Tu_go, tugo nesreco, 2x
Cm Gm Eb D Gm // evt. F umjesto D
nikoga ni_sam, tako volio.

SOLO:
|--------------------------------|-------------------------------------------|
|-------------8------------------|---------------8---------------------------|
|--------5--7--7----5--7-5-------|--------5--77---7--5/7\5--8-8---5/7\5--7-7-|
|--5-7-8--------------------8-7--|--5-7-8------------------------------------|
|--------------------------------|-------------------------------------------|
|--------------------------------|-------------------------------------------|

|----------------|
|----------------|
|----------------|
|--7/8\7--5-3-5--|
|----------------|
|----------------|

Kad suze govore, istina razvaljuje,
i svaka rijec, me obori s nogu
to sto si varala, to bih ti oprostio,
al sto si mene, to ne mogu.

ref.
 
Hoyas
LEGEND
Učlanjen(a)
06.06.2009
Poruka
21.097
crvena jabuka :: tvog srca vrata

/ solo /

Hm G
Redaju se slike, setaju Miskinovom
D F#
djevojke k’o vile
Hm
davno proslo vrijeme
G F#Hm F#
sve ste moje bile

vracaju se dani mirisu tresnje
kada sidjem niz Kovace
pitat cu te jednom
sta ti ove pjesme znace

Hm G A D
za koga nocas cuvas dukat oko vrata
Hm G A D Hm
i da l’ jos ime moje tvoga srca vrata otvara
Hm G A D
za koga nocas cuvas dukat oko vrata
Hm A F# Hm
i da l’ jos ime moje tvoja vrata otvara

zbogom bivse noci dernek u parku
ti kraj mene i gitara
ne znam da l’ cu moci biti onaj isti
a ti ona stara

i redaju se slike, setaju niz kinovo
djevojke k’o vile
davno proslo vrijeme
sve ste moje bile

za koga nocas....

/ solo klavijatura /
/ solo gitara /

za koga nocas...

/ solo gitara /

***VERZIJA 2***
Transkripcija: Mladjo


Uvod
|------------------------------------------------------------------------|
|------------------------------------------------------------------------|
|------------------- 4 2 5-----------------------------------424-----223|
|-444 2----------------------2h4 4 2 4----4444-2----------------- 2h4----|
|------ 5 4/5\4 2 2---------------------------- 54/5\4 2- 2-------------|
|------------------------------------------------------------------------|

Riff 1 refrejn
|------------------------------------------------------------------------|
|------------------------------------------------------------------------|
|-9h11--9----9h11------------9h11-11-9-----------------------------------|
|---------12---------------------------12-11-9---------------------------|
|------------------------------------------------------------------------|
|------------------------------------------------------------------------|

riff 2 refrejn
|------------------------------------------------------------------------|
|-14-15-17-15-14---------------------------------------------------------|
|-14-------------16-14---9bu 11 bd9-p7--9/11--------9h-11-11-9-----------|
|-14-----------------------------------------------------------12-11b12-9|
|------------------------------------------------------------------------|
|------------------------------------------------------------------------|

|------------------------------------------------------------------------|
|---------------------------------------------7--------------------------|
|----------------------------------9b11bd9p7h9-9-------------------------|
|------------------------------------------------------------------------|
|-12\10-9-7-9--9p7h9p7h9p7h9----------------------4-2--------------------|
|------------------------------------------------------------------------|

Solo
|------------------------------------------------------------------------|
|----------------------3p2-----------------------------------------------|
|------------------- -----4-2-4---------------11-11-11-9----------------|
|-444 2---------------------------2h4 4 2 4---------------12-11b12bd11-9-|
|------ 5 4/5\4 2 2--------------------------------------- -------------|
|------------------------------------------------------------------------|

|-----------------------10h12-10-12-9-10---------------------------------|
|------------------10h12-----------------10h12-12-12-12-12-10------------|
|------------------------------------------------------------12----------|
|-11p9-11-11/12-12-------------------------------------------------------|
|------------------------------------------------------------------------|
|------------------------------------------------------------------------|

|------------------------------------------------------------------------|
|------------------------------------------------------------------------|
|-11-12-14p12p11---11----------------------------------------------------|
|---------------14----14-12-11h12p11----11-------------------------------|
|------------------------------------12----14----------------------------|
|------------------------------------------------------------------------|

outro
vrata otvara
|------------------------------------------------------------------------|
|------10----10h12----15p14h15-------------------------7-----------------|
|--7h9-------------------------12/14---14-9--9b11bdr7h9--9-7-6br---------|
|---------------------------------------------------------------9--9p7h9-|
|------------------------------------------------------------------------|
|------------------------------------------------------------------------|

#cekas me ti# kao pocetak 1 solo pa onda ovo
mozda sam promasio ton dva ovde
|-------5----------------------------------------------------------------|
|---5h7---7-5-------------------------------10-----10--------------------|
|-------------7-6br------------6-7-9--9p7h9----9b11--bd9p7h9-------------|
|-------------------9----9p7h9-------------------------------7-\---------|
|------------------------------------------------------------------------|
|------------------------------------------------------------------------|

|---------------------------------12-----------------12b14bd12p10-12p10--|
|----------------------10----12b14---12-10--10h12-12-------------------12|
|-----7---------9-----9--------------------------------------------------|
|----7--9---7h9------9---------------------------------------------------|
|-/9---------------------------------------------------------------------|
|------------------------------------------------------------------------|

|-10----------------10-9-10p9p7-9-7----7---------------------------------|
|----12-10--------------------------10---10-7--7-------------------------|
|---------------------------------------------9--9p7h9p7-----------------|
|--------------------------------------------------------9p7h9p7-7-9-----|
|---------------------------------------------------------------9--------|
|------------------------------------------------------------------------|
 
Hoyas
LEGEND
Učlanjen(a)
06.06.2009
Poruka
21.097
crvena jabuka :: tvojim zeljama vodjen

Intro:Dm Gm A7

Dm Gm
Daj mi daj,daj mi sat,daj mi minut tisine
A7 Dm
da iz daljine prvi put pogledam u sebe
Dm Gm
pa da znam da l sam sam il' s tobom sam roden
A7 A#
tvojim zeljama voden,jesi li zena za mene,
A7
zena za mene


Dm C
Ove ruke sto me miluju su hladne
Gm
oci gladne
F A7
vise ne poznajem taj lik
Dm C
i taj sjaj u oku sto ga nosis draga,
Gm
to nije ljubav
F A7
vec samo jeftini trik.


Uvijek laz,samo laz nije tesko prepoznat'
neko tako ti poznat masku mijenja za tren
nisam dobar ni los sasvim sasvim mi je svejedno
a molim te jedno,ostavi prozor otvoren
da izade tuga,da ne ostanem njen

Ove ruke sto...


***VERZIJA 2***



uvod: 1
Dm7 Dm Gm7 Gm
E||-10-10-10-10-8-8-------------8-8-8-8-------------------
H||-----------------11-10-11p10---------11-11-10--8--10p8-
G||-------------------------------------------------------
D||-------------------------------------------------------
A||-------------------------------------------------------
E||-------------------------------------------------------

A7#5 A7 Dm
E||-------------------------------|------|
H||-11-11-11-11--10-10--8-8-------|-8-10-|
G||-------------------------10-10-|------|
D||-------------------------------|------|
A||-------------------------------|------|
E||-------------------------------|------|

uvod: 2
Dm7 Dm Gm7 Gm
E||-10-10-10-10---8---8--6--5^6p5---8---8---8--6--6--5--3^5p3--
H||-10-10-10-10--10--10--8--6---6--10--10--10--8--8--6--5---5--
G||------------------------------------------------------------
D||------------------------------------------------------------
A||------------------------------------------------------------
E||------------------------------------------------------------

A7#5 A7 Dm Dsus2 Dm
E||--6--6--6--6--5--5--3--3--1--1------1--
H||--8--8--8--8--6--6--5--5--3--3---5--3--
G||------------------------------------2--
D||---------------------------------------
A||---------------------------------------
E||---------------------------------------

Dm7 Dm Gm Gm7
Daj mi daj, daj mi sat, daj mi minut tisine,
Asus4 A7 Dm Dsus2 Dm
da iz daljine, prvi put pogledam u sebe.
Dm7 Dm Gm Gm7
Pa da znam dal' sam sam il' s tobom sam rodjen,
A A7 B A A7
tvojim zeljama vodjen, jesi li zena za mene, zena za mene.

Dm Dm7 G7sus4/C Gm Gm7
Ove ruke sto me miluju su hladne, oci gladne,
F A A7
vise ne poznajem taj lik.
Dm Dm7 G7sus4/C Gm Gm7
I taj sjaj u oku sto ga nosis draga, to nije ljubav,
F A A7
vec samo jeftini trik.

Uvod : 2

Dm7 Dm Gm Gm7
Uvijek laz, samo laz nije tesko prepznat'
A sus4 A7 Dm Dsus2 Dm
neko tako mi poznat, masku mijenja za tren.
Dm7 Dm Gm Gm7
Nisam dobar ni' los sasvim mi je svejedno,
A B
a molim te jedno, ostavi prozor otvoren,
A A7 B A A7
da izadje tuga, da ne, ostanem njen.

Dm Dm7 G7sus4/C C Gm Gm7
Ove ruke sto me miluju su hladne, oci gladne,
F A A7
vise ne poznajem taj lik.
Dm Dm7 G7sus4/C Gm Gm7
I taj sjaj u oku sto ga nosis draga, to nije ljubav,
F A A7
vec samo jeftini trik.


Uvod : 1

uvod : 2
Na na na naj naj na na na na naj na na

Dm Dm7 G7sus4/C C Gm Gm7
Ove ruke sto me miluju su hladne, oci gladne,
F A A7
vise ne poznajem taj lik.
Dm Dm7 G7sus4/C Gm Gm7
I taj sjaj u oku sto ga nosis draga, to nije ljubav,
F A A7
vec samo jeftini trik.


Dm Dm7 G7sus4/C C Gm Gm7
Ove ruke sto me miluju su hladne, oci gladne,
F A A7
vise ne poznajem taj lik.
Dm Dm7 G7sus4/C C Gm Gm7
I taj sjaj u oku sto ga nosis draga, to nije ljubav,
F A A7
vec samo jeftini trik. Fade out

E A D G H E
-----------
Dm7 : X 5 7 5 6 5
Gm7 : 3 5 3 3 3 3
Asus4 : X 0 2 2 3 0
Dsus2 : X X 0 2 3 0
G7sus4/C : X 3 0 0 1 1
A7#5 : X 0 3 2 2 3
 
Hoyas
LEGEND
Učlanjen(a)
06.06.2009
Poruka
21.097
crvena jabuka :: ucinicu sve da te zadovoljim

Uvod:
A A-D D-E x puta

A (A) D (D E) A
Kao ,kao struja me u_da_ras
(A)D (D E)A
ti ne treba da foliras
D (D E) E
ti si meka, topla i vlazna

Pusti, pusti davez papaka
sto masni su do lakata
ti si za njih premija ... zvizdeca

Ja ne zelim da se udvaram
daj uljepsaj dan dosadan
ti si meka pornografija ..djeci zabranjena, djeci uskracena

A D (D E) A D
Ucinicu sve da te zadovoljim
(D E) A D E
da te cijelu ispunim i usrecim
E A
nocas sam u formi ja

Kao , kao struja me udaras
ti ritam nikad ne mijenjas
meni treba ta energija ...vristeca

Pusti ,pusti davez papaka
sto masni su do lakata
ti si za njih partija ...jos ne odigrana

Ja ne zelim da razgovaram
to je cista budalastina
ti si meka pornografija djeci zabranjena, djeci uskracena

Ucinicu sve da te zadovoljim
da te cijelu ispunim i usrecim
nocas sam u formi ja
 
Hoyas
LEGEND
Učlanjen(a)
06.06.2009
Poruka
21.097
crvena jabuka :: umoran

G
Ako ti odes
Em7
bit ce to sjaj u travi
Cadd9 D
mene su vec podjelili na pola

Oci su mi mutne, ljubav u glavi
ja ne znam sta je sa mnom
isp'o sam iz fola

Nema tu ljubavi, pobrkali ste vjere
dok ja ne budem htio
necu da selim
ja sam svjesna zrtva prevare
i to me zdere
nemam snage biti posten iako to zelim

Ref.
Umoran sam od ponosa
umoran od ljudi
ko ce biti porota
ko ce biti kriv
u mojim rukama su samo tvoje grudi
i da mi nije tebe
ja ne bih bio ziv


* Cadd9 x32033 moze da se svira i x32013
 
Hoyas
LEGEND
Učlanjen(a)
06.06.2009
Poruka
21.097
crvena jabuka :: umrijecu nocas od ljepote

Gm Bb F Gm
Ja te nikada necu upoznati
Cm Gm Bb F Gm
jer kad budem im´o hrabrosti blizu neces biti ti x2

Kao dim od cigarete kao tracak svjetlosti
pred ocima slike lete nose miris proslosti
D7
zbog nje se boluje

REF:
Gm
Hej zivote umrijecu nocas od ljepote
Cm
zaspacu nocas ja zbog nje
Bb F Gm D7
da nikad me ne probude x2

Oko usana ciji miris cuvas ti
nije lako naci razlog da o tebi ne mislim
zbog nje se boluje

REF: 3x
 
Hoyas
LEGEND
Učlanjen(a)
06.06.2009
Poruka
21.097
crvena jabuka :: uzmi me kad hoces ti

[Dm]gledam te dok [F]hodas dje[C]vojcica si [Dm]noci
s [Dm]usnama od [F]svile [C]bedrima od [Dm]zlata
[Gm]momacka je pjesma pod prozorom [Dm]tvojim
[A]kome ces veceras odskrinuti [Dm]vrata
[F]aija[A]j odskrinuti [Dm]vrata

kad se setim boja i mirisa ljeta
moje vrele sobe ujulsko predvece
boli me i gusi osamdesetsesta
da mi je sad znati kuda odose
jojojojoj dani odose

[C]uzmi me kad [F]hoces ti
[C]barem mene mozes uvijek [F]imati
[Gm]hajde dodji da se srce [Dm]napije
ma [A]reci sta ce meni zivot bez [Dm]tebe
[F]aija[A]j zivot bez [Dm]tebe


***VERZIJA 2***
d F C d
Gledam te dok hodas, djevojcica si noci,
d F C d5
s usnama od svile bedrima od zlata,
g d
momacka je pjesma pod prozorom tvojim,
A A d
kud li ces veceras odskrinuti vrata.
d A A d
... odskrinuti vrata...

Kad se sjetim boja i mirisa ljeta,
moje vrele sobe u julsko predvcer,
boli me i gusi 86-ta,
da mi je sad znati kuda odose...
... dani odose...

F C
Uzmi me kad hoces ti,
F C
barem mene mozes uvijek imati,
g d
hajde dodji da se srce napije
A A d
reci sta ce meni zivot bez tebe

Uzmi me kad hoces ti,
barem mene mozes uvijek imati,
hajde dodji da se srce napije
reci sta ce meni zivot bez tebe
... zivot bez tebe...
... zivot bez tebe...

Kad se sjetim boja i mirisa ljeta,
moje vrele sobe u julsko predvcer,
boli me i gusi 86-ta,
da mi je sad znati kuda odose...
... dani odose...

Uzmi me kad hoces ti,
barem mene mozes uvijek imati,
hajde dodji da se srce napije
reci sta ce meni zivot bez tebe

Uzmi me kad hoces ti,
barem mene mozes uvijek imati,
hajde dodji da se srce napije
reci sta ce meni zivot bez tebe
... zivot bez tebe...
... zivot bez tebe...


***VERZIJA 3***
Transkripcija: Beeman

( "C" )
:---------1---------0-------0-0------------1--
:---------3---------1------1----1----------3--
:-----2-----------2-------0--------------2----
:-0--------------3-------2-------------0------
:-----------------------3---------------------
:---------------------------------------------
Gledam te dok hodas djevojcica si noci

( "c" )
:-------1---------0-------0-0-----------1-----
:-------3---------1------1---1----------3-----
:-----2---------2-------0-------------2-------
:--0----------3--------2------------0---------
:---------------------3-----------------------
:---------------------------------------------
s usnama od svile bedrima od zlata

:------3--------3---------3----------1--------
:------3--------3---------3----------3--------
:----3---------3-------3-----------3----------
:--------------------------------0------------
:---------------------------------------------
:-3----------3------3-------------------------
momacka je pjesma pod prozorom tvojim

:-------0-------0---------------1-------
:-------2-------2---------------3-------
:----2-------2-------2-----2----2-------
:------------------3------------0-------
:-0--------0-------------0--------------
:---------------------------------------
komu ces veceras odskrinuti vrata

:---1----0----------------1--
:---3----2----------------3--
:--2----2---------------2----
:-0---------3---------0------
:------0------0--2-4---------
:----------------------------
aija j odskrinuti vrata


( "C" )
------0--
-----1---
----0---- = taj C ne razloziti vec samo potegnuti.To sam napisao da bude
---2-----
--3------ preglednije
---------
 
Hoyas
LEGEND
Učlanjen(a)
06.06.2009
Poruka
21.097
crvena jabuka :: uzmi me

intro: D G(III) A x2

A D
Ti si kusur od srece
G(III) A
i zvijezda danica
D
pero i vlak
G(III) A
zadnja stanica

Bm
ono nesto
G(III) A
izmedju jave i sna
Em
u mraku
G(III) A
svijetlo voda i zrak

A D
ti si vijetar u ledja
G(III) A
i kava jutarnja
D
sve sto me vrijedja
G(III) A
u znoju budjenje iz sna

A Bm
na sto nacina poraz
G(III) A
nikad pobjeda
Em
rukama svojim
G (III) A
ti si me povukla do dna


ref:
Em G(III)
uzmi me
D A
usnama ko urmama
Em G(III)
uzmi me
D A
ko me li me ostavljas

Em G(III)
uzmi me
D A
srce mi je od jada
Em G(III)
od jada
Bm A D
i od pustih svitanja bez tebe


D G(III) A x2

A D G(III)
Glava mi je teska
A
noge mi od olova
D G(III)
i sve je isto
A
posle suse poplava

Bm
sve po starom
G (III) A
starimo ti i ja
Em
ako ovo nije ljubav
G(III) A
sto je reci da znam


ref: 1x


D G(III) A
 
Hoyas
LEGEND
Učlanjen(a)
06.06.2009
Poruka
21.097
crvena jabuka :: vjetar

[Dm]Skupi svoju kosu u saku
[C]Vezi oko svilenu traku
U casu kad ti zadrhti ruka
[A]Vezi maramu oko struka

Ali [Gm]ne [A]nemoj mene veza[Dm]ti

Pusti me na debelo more
Da uz vjetar ja zaplovim
Kisa nek mi crta bore
Tad cu jos vise da te volim

Ali ne nemoj me vezati

Vjetar se [Gm]vezat ne moze
Ni kada [Dm]mora presuse
Vjetar se [A]vezat ne moze
Tu samo [Dm]ljubav pomaze

Probudi me tiho i bez glasa
Vezi noge oko moga pasa
Stisni me kad kisa pljusne
Vezi svoj dah za moje usne

Ali ne nemoj mene vezati

Isprati me na prasnjavu cestu
I pusti me da zapjevam
Moje srce ne zna kucat
Na jednom mjestu
Ja nista tu ne mogu
Ja samo to znam

Ali ne nemoj me vezati
 
Top