Šta je novo?
SerbianForum

Dobrodošli na SerbianForum.org, mjesto na kojem možete pronaći apsolutno sve, mjesto druženja i odlične zabave!

Van Gogh

  • Začetnik teme zexmon
  • Datum pokretanja
zexmon

zexmon

Član
Van Gogh



***

Klatno

B5


B5 A5 G5 F#5

Mi sve smo probali i sve prodali za samo jedan dan

B5 A5 D5 F#5

I sva naša nadanja su izbledela od èekanja


| | | | | | | |
E----------------------------------|----------------------------------|
B----------------------------------|----------------------------------|
G----------------------------------|----------------------------------|
D----------------------------------|----------------------------------| 2X
A--------------------------2-------|--------------------------2-------|
E--2-2-0-2-5---0-2---2-0-2-----5---|--2-2-0-2-5---0-2---2-0-2-----0---|




B5 A5
Koliko puta sam zamišljao kako me oblak nekud odneo

G5 F#5
Negde daleko, u zaborav, više mi ništa ne znaèiš

B5 A5 D5 F#5
While my guitar gently weeeeeeps


D5
Klati se klatno, zlato je zlato,
(Sve, sve ove)

A5
Bleda je senka lepa i slepa
(godine ti si)

E5
Spava li bajna, da li je tajna
(tu i)

G5 A5
Kako se klatno klatilo zlatno
(èekaš da naðem te)


D5
Klati se klatno, zlato je zlato,
(Znaš da ljubav)

A5
Bleda je senka lepa i slepa
(slepa je kaži)

E5
Spava li bajna, da li je tajna
(mi)

G5 A5
Kako se klatno klatilo zlatno
(kako da èuvam te)


solo
| | | | | | | | | | | | | | | |
E----------------------|------------------|------------------|----------------|
B-------------------10-|-10--s5---------5-|-7-----------10---|-10---9---------|
G--11---------11-12----|--------------7---|------------------|----------------|

D----------------------|------------------|------------------|----------------|
A----------------------|------------------|------------------|----------------|
E----------------------|------------------|------------------|----------------|


| | | | | | | | | | | | | | | |
E----------------------|------------------|------------------|-----------------|
B-------------------10-|-10--s5---------5-|-7-----------10---|-10---9-------12-|
G--11---------11-12----|--------------7---|------------------|-----------------|

D----------------------|------------------|------------------|-----------------|
A----------------------|------------------|------------------|-----------------|
E----------------------|------------------|------------------|-----------------|


| | | | | | | | | | | | | | | |
E--------------------|-------------------|------------------|-------------------|
B--12---11-----------|-(11)--------------|-12---------------|-(12)--------------|
G--------------------|-------------------|------------------|-------------------|
D--------------------|-------------------|------------------|-------------------|
A--------------------|-------------------|------------------|-------------------|
E--------------------|-------------------|------------------|-------------------|


I ovo sve, tako težak je jedan pokušaj za samo jedan dan
While my guitar gently weeps


Klati se klatno, zlato je zlato (Sve, sve ove)
Bleda je senka, lepa i slepa (godine ti si)
Spava li bajna, da li je tajna (tu i)
Kako se klatno zlatilo zlatno (èekaš da naðem te)

Klati se klatno, zlato je zlato (Znaš da ljubav)
Bleda je senka, lepa i slepa (slepa je kaži)
Spava li bajna, da li je tajna (mi)
Kako se klatno zlatilo zlatno (kako da èuvam te)


| | | | | | | |
E----------------------------------|----------------------------------|
B----------------------------------|----------------------------------|
G----------------------------------|----------------------------------|
D----------------------------------|----------------------------------| 2X
A--------------------------2-------|--------------------------2-------|
E--2-2-0-2-5---0-2---2-0-2-----5---|--2-2-0-2-5---0-2---2-0-2-----0---|



F#5 F#5 F#5 G5 G5 G5


Rifovi:
D5: x 5 7 7 x x
E5: x 7 9 9 x x
F#5: 2 4 4 x x x
G5: 3 5 5 x x x
A5: 5 7 7 x x x
B5: 7 9 9 x x x

***





 
Top