Djordje Balasevic - Devojka sa cardas nogama

Učlanjen(a)
09.08.2017
Poruka
100

Đorđe Balašević

Devojka Sa Cardas Nogama​





Uvod:
Am
{-----------------------------alternate-----------------------------}
E--s5---------------------------------------------------------------|
H----5--4s5-6-5-8^6-5-3^5-1~-0^1-3-1-3^1-0--------------------------|
G-------------------------------------------1^2---------------------|
D-----------------------------------------------2-1^2-3-2-0---------|
A-----------------------------------------------------------3-2---0-|
E---------------------------------------------------------------4---|

Pratnja(pocetak):
Am E
E-----------0-0---0---0-0---0---0-0---0------------|
H-----------1-1---1---1-1---1---1-1---1------------|
G-----------2-2---2---2-2---2---2-2---2------------|
D---------------2---------2---------2--------------|
A--------0----------0---------0----------0---------|
E--0-2-4------------------------------------0-2-4--|

Ovo se svira pre nego se pocne sa pevanjem.
Posle se svi akordi razlazu na ovu foru.

Pratnja(refren):
C G
E--x-8--x-8--x-8--x-8--x-8--x-8--x-8--x-8---x-3-x-3-x-3-x-3-x-3-x-3-x-3-x-3-
H--x-8--x-8--x-8--x-8--x-8--x-8--x-8--x-8---x-3-x-3-x-3-x-3-x-3-x-3-x-3-x-3-
G--x-9--x-9--x-9--x-9--x-9--x-9--x-9--x-9---x-4-x-4-x-4-x-4-x-4-x-4-x-4-x-4-
D--x-10-x-10-x-10-x-10-x-10-x-10-x-10-x-10--x-5-x-5-x-5-x-5-x-5-x-5-x-5-x-5-
A--x-10-x-10-x-10-x-10-x-10-x-10-x-10-x-10--x-5-x-5-x-5-x-5-x-5-x-5-x-5-x-5-
E--x-8--x-8--x-8--x-8--x-8--x-8--x-8--x-8---x-3-x-3-x-3-x-3-x-3-x-3-x-3-x-3-

Dm Am E
E--x-5-x-5-x-5-x-5-x-5-x-5-x-5-x-5-x-5-x-5-x-5-x-5-x-7-x-7-x-7-x-7-|
H--x-6-x-6-x-6-x-6-x-6-x-6-x-6-x-6-x-5-x-5-x-5-x-5-x-9-x-9-x-9-x-9-|
G--x-7-x-7-x-7-x-7-x-7-x-7-x-7-x-7-x-5-x-5-x-5-x-5-x-9-x-9-x-9-x-9-|
D--x-7-x-7-x-7-x-7-x-7-x-7-x-7-x-7-x-7-x-7-x-7-x-7-x-9-x-9-x-9-x-9-|
A--x-5-x-5-x-5-x-5-x-5-x-5-x-5-x-5-x-7-x-7-x-7-x-7-x-7-x-7-x-7-x-7-|
E--x-5-x-5-x-5-x-5-x-5-x-5-x-5-x-5-x-5-x-5-x-5-x-5-x-7-x-7-x-7-x-7-|

Otprilike taj fazon. Da bi se postigla brzina, akordi se trzaju odozgo dok
su priguseni, a odozdo kad su pritisnuti.

Tekst i akordi:
Am Dm Am E Am
Nosila je jelek svileni, kao u pesmi narodnoj.
Am Dm Am E C
I krstic, znak na lancicu da nekog ceka navodno,
E Am E Am
'Ej to su bili svatovi, sve kiceni i zlaceni,
Dm Am E F Am
A mi smo bolje svirali, neg' sto smo bili placeni... Al dobro sad...

Nosio sam sal od kashmira i prsluk protkan tajnama.
Bas od tak'ih su je cuvale tetke sa laznim trajnama,
K'o srna me je gledala, zalosnom pesmom sludjena,
Cije si, pile pirgavo, sto nisi meni sudjena...?

Ref:

C G
Hej, pusti kose pune polena,
Dm Am E
Hajde, bas u inat babarogama,
C G
Opa, digni suknju iznad kolena
Dm Am E
Znam da krijes cardas u tim lepim nogama
(drugi put:)
Hej, doleti mala senice
Tu, na moje zlatne chivije
Vatra sara tvoje zenice,
Razbi nesto i zaigraj ludo, divije!

Rekoh joj - Bezi, mani se i trazi bolje partije!
Premala je moja tambura da te od kise sakrije,-
rekoh joj - Ja sam samo tu da vreme brze proleti,
Ja nosim cizme skitaljke, mene je tesko voleti...Badava.

Prelaz:
Am Dm Am E
{--------------------------------alternate------------------------------------}
E--5---8^7^5-5---8^7^5-5---8^7^5-5---8^7^5-5---8^7^5-5---8^7^5-5---8^7^5--------|
H----5---------5---------5---------5---------5---------5---------5--------5ss13-|
G-------------------------------------------------------------------------------|
D-------------------------------------------------------------------------------|
A-------------------------------------------------------------------------------|
E-------------------------------------------------------------------------------|
Am Dm Am E
{--------------------------------------alternate----------}
E-----------------------------------------------------------|
H--13-10--9s10-12-10-12^10-------10-------------------------|
G--------------------------12-10----9----9-10-9-12^10-9-----|
D-------------------------------------13----------------12--|
A-----------------------------------------------------------|
E-----------------------------------------------------------|
Am E Am
{-------alternate-------------}
E---12--11-12-13-12-10------------|
H----------------------13-12-9-10-|
G--9------------------------------|
D---------------------------------|
A---------------------------------|
E---------------------------------|



Am Dm Am E
{----------------------alternate--------------------------}
E-----------------------------------------------------------|
H--s10------------------------------------------------------|
G------9----9-12-10-12^10-9----9----------------------------|
D--------13-----------------12---10--9^10-12-10-12^10-9-----|
A-------------------------------------------------------11--|
E-----------------------------------------------------------|

Am E Am
{------------alternate-----------}
E--------------13-12-10------------|
H-----------------------13-12-9-10-|
G----9----9-10---------------------|
D------12--------------------------|
A--12------------------------------|
E----------------------------------|


(posto sam pesmu skidao po secanju, a i skala je zaj***na,
za prelaze ne garantujem. Ovo su samo neke odmogucih varijacija )

Kraj:
Am Dm E Am
{--------------------------alternate----------------------------}
E-----------------------------------------------------------------|
H--s10--------------------------------9-12-10-9-10-12-10-9-12-10--|
G------9----9-12-10-12^10-9----9-9-11-----------------------------|
D--------13-----------------12------------------------------------|
A-----------------------------------------------------------------|
E-----------------------------------------------------------------|

Objasnjenje:
s-slide
ss-malo duzi slide
^-hammer on ili pull off
~-vibrato
x-zica se svira priguseno
 
Top