Šta je novo?
SerbianForum

Dobrodošli na SerbianForum.org, mjesto na kojem možete pronaći apsolutno sve, mjesto druženja i odlične zabave!

Divlje jagode

  • Začetnik teme zexmon
  • Datum pokretanja
zexmon

zexmon

Član
DIVLJE JAGODE



***



Zauvjek Tvoj
.

A Hm F#m E F#m
Zima je decembar mokri snjegovi
A Hm F#m E F#m
Svuda su tragovi tvoji ostali
A Hm F#m E F#m
Na tren pomislim nisam ni zasta
A Hm F#m E F#m
Nikad gore godine duso vjeruj mi

Pre-chorus:
D A D E F#m
Sjecanja me bole sva moja ljubavi
D A E D
Sibaju me vjetrovi, modri vjetrovi

Chorus:
F#m D A E
Zauvjek tvooooooooooooooooojjjj
F#m D A E
Zauvjek tvooooooooooooooooojjjj


Solo:
E||-------18----17--15-------------------------------------------------|
B||--/15----------------15----15----16----15h16p15---------------------|
G||------------------------------------------------17--15---14\12--15--|
D||--------------------------------------------------------------------|
A||--------------------------------------------------------------------|
E||--------------------------------------------------------------------|


Sjecam se ti i ja moja jedina
Pamtim sve ti i ja hladne ulice
Mjesec svud oko nas a ti ljubis me
Topla si drhtis sva dali sjecas se

Stajala si tu kraj mene sva u suzama
Kao srna uplasena, zbunjena

Zauvjek tvoj, Zauvjek tvoj

heavy palm mute
E||--------------------------------------------------------------------|
B||--------------------------------------------------------------------|
G||------------------------------------------------4/7-6-4-------------|
D||-4-4-4-4-4--4-4-4-4--------------------4-4-4-4--4/7-6-4-------------|
A||-0-2-2-0-2--0-2-0-2--4-4-4-4--4-4-4-4--2-2-0-2--2/5-4-2--4-4-4-4----|
E||---------------------2-2-0-2--0-2-0-2--------------------2-2-0-2----|


E||--------------------------------------------------------------------|
B||--------------------------------------------------------------------|
G||--------------------------------------------------------------------|
D||--------------------------------------------------------------------|
A||--------------------------------------------------------------------|
E||--2--4--5--0---------2--------2--4--5--0----------------------------|


E||--------------------------------------------------------------------|
B||----------------------------------------------------------------10--|
G||----------------------------------------9----9-11-9-11-12-11-12-----|
D||----------------9----9-11-9-11-12-11-12---12------------------------|
A||-/9h11-12-11-12---12------------------------------------------------|
E||--------------------------------------------------------------------|
***


Sejla

Uvod - bas

E--------------------------------------
H--------------------------------------
G--------------------------------------
D--------------------------3-5-5-5—-5--
A--3-5-5-5-5-5-5-5-3-5-5-5---------3---
E--------------------------------------


Gitara

Riff 1
E----------------------------------
H----------------------------------
G-----------------------------7---- 2x
D—-5-/7-x-x-x-xx-7--5-/7-x-xx-5-5--
A—-3-/5-x-x-x-xx-5--3-/5-x-xx---3--
E----------------------------------


Riff 2
E--------------------------------
H--------------------------------
G-----------------------------7--
D—-5-/7-x-x-x-xx-7--5-/7-x-xx-5--
A—-3-/5-x-x-x-xx-5--3-/5-x-xx----
E--------------------------------


Riff 3
E---------------------------------
H---------------------------------
G---------------------------------
D--5--7--------3-----3------------
A--3--5--0-3-0---5-0-1--0---3-xx--
E-------------------------3-1-xx--


Riff 4
Bas Gitara

E--------------------------- -----------13-15-17b---
H--------------------------- -x-15-13h15------17b---
G--------------------------- -----------------------
D--5-7-7-7-7-7-7-7-5-7-7-7-- -----------------------
A--------------------------- -----------------------
E--------------------------- -----------------------


Riff 1
Oci tvoje gube sjaj
Riff 1
I nasoj prici vec je kraj
Riff 1
Odlazis mi zadnji put
Riff 2
Nisam kriv, a nisam ljut. mmmmmmm

Refren:

Riff 3
Sejla ...

Riff 3
Sejla ...

Riff 3
Sejla ...

Riff 3
Sejla ...

Riff 4
Oooo,ooo

Riff 1 2x

Pored rijeke pusto sve
Samo sjenke bore se
Gledam tuzno kao pas
Nikad nista od nas.

Refren:

Sejla ...
Sejla ...
Sejla ...
Sejla ...

Riff 4 (samo bas)
Oooo,ooo

Solo
E--------------------------------------------------------------------
H--------------------------------------------------------------------
G—-3p0h3p0h3p0h3p0h3p0h3p0h3p0h3p0-2p0h2p0h2p0h2p0h2p0h2p0h2p0hg2p0--
D--------------------------------------------------------------------
A--------------------------------------------------------------------
E--------------------------------------------------------------------

E--------------------------------------------------------------------
H--------------------------------------------------------------------
G—-3p0h3p0h3p0h3p0h3p0h3p0h3p0h3p0-2p0h2p0h2p0h2p0h2p0h2p0h2p0hg2p0--
D--------------------------------------------------------------------
A--------------------------------------------------------------------
E--------------------------------------------------------------------


E--------------------------------------------------------------------
H--------------------------------------------------------------------
G—-3p0h3p0h3p0h3p0h3p0h3p0h3p0h3p0-2p0h2p0h2p0h2p0h2p0h2p0h2p0hg2p0--
D--------------------------------------------------------------------
A--------------------------------------------------------------------
E--------------------------------------------------------------------


E-------------------------------------------------------
H-------------------------------------------------------
G—-3p0h3p0h3p0h3p0-5p0h5p0h5p0h5p0-7p0h7p0h7p0h7p0-7-\--
D-------------------------------------------------------
A-------------------------------------------------------

E-------------------------------------------------------

E-----------------------------------1--1------
H---------------------------------------------
G------------------------2-0-2-3-2-3----3-2---
D-------2-0-2-3-2-3-5-3-5------------------0--
A--5-3-5--------------------------------------
E---------------------------------------------


impro
E------------------10-13-10------------------------
H----------------10--------13-10-------------------
G--10--12-10--------------------12-10--------------
D-----------12-10--------------------12-10---------
A-----------------------------------------12-10----
E----------------------------------------------10--


E-------------------------------------------------------------
H----------------------------3---------------------3-4/6------
G-----------------222-333-555-----------------2/3-5-----7b-\--
D--000-222-333-555-------------0-0-2-2-3-3-5-5----------------
A-------------------------------------------------------------
E-------------------------------------------------------------


E------------------------------------------------
H------------------------------------------------
G--3-0-5-0-3-------------3-x-5-0-3---------------
D-------------5-3-0-3-5-------------x-0-3-0-3-5--
A------------------------------------------------
E------------------------------------------------

E--------------------------------------------------------------
H-------8-8-8-8-8-8-8-8-8-8-8-8-8-8b--8-6-8-8-8-6---8-6--------
G—-5/7--7-7-5-7-7-5-7-7-5-7-7-5-7-----------7--7-7-7---7-5-----
D---------------------------------------------------------8-5--
A--------------------------------------------------------------
E--------------------------------------------------------------




E------------------------------------------------------------------
H—-8/10--10-10-10-10-10-10-10-10-10-10-10-10-10-13-13-12-12-10-10--
G—-7/-9---9--9--7--9--9--7--9--9--7--9--9--7--9-12-12-11-11--9—-9--
D------------------------------------------------------------------
A------------------------------------------------------------------
E------------------------------------------------------------------

E------------------------------------------------------------------
H--13-13-12-12-10-10-10-10-10-10-10-10-10-10-10-10-10-10-10-10-10--
G--12-12-11-11--9--9--9--9--7--9--9--7--9--9--7--9--9--7--9--9--9--
D------------------------------------------------------------------
A------------------------------------------------------------------
E------------------------------------------------------------------

E--------------------------------------
H—-8/10-10-10-10-10-10-10-10-10-\-\-\--
G—-7/-9--9--9--9--9--9--9--9--9-\-\-\--
D--------------------------------------
A--------------------------------------
E--------------------------------------


Refren

* Ovde u refrenu samo kada prva 2 puta govorite Sejla
* svirate Riff 3. Za sva ostala ponavljanja svirate u
* pozadini Figuru 1. To je sve

Figura 1
E—------10----------13-10-\--------
H---13b----10-13-10---------11-10--
G---------------------------12-10--
D----------------------------------
A----------------------------------
E----------------------------------
***


DA LI SI IKAD MENE VOLJELA


G Am
Kada dodje s brijegova
C Em D
miris ranih snijegova
C D
meni na um padnes ti,
C
pa se pitam sta nam bi
G
eh sta nam bi
D C-D E
od ljubavi

G Am
Da li ti se ikada
C Em D
suza za mnom omakla
C D
nepozvanog u svom snu
C
nadjes li me koji put


G D C-D Em Am
I da li si ikada mene voljela
Em Am Em Am
dal' si ikada mene voljela


|-------------------------------------------------------------------|
|-----------12-13-12-----12--------------12-------------------------|
|---11-12-14-----------14--14-12-14----14--12---11-12-14------------|
|-14----------------------------------------------------14----------|
|-------------------------------------------------------------------|
|-------------------------------------------------------------------|

|---------------------------------------------12--------------------|
|--15-15---13-12--13---12----------12-13-15-----15-13----12--13-----|
|---------------14-------12---12-14------------------------14-------|
|-------------------------------------------------------------------|
|-------------------------------------------------------------------|
|-------------------------------------------------------------------|


|-------------------------------------------------------------------|
|-----------12---13-12----------------------------------------------|
|------12-14----------14-12---11-12-15-11-----12-11--------11-12----|
|-12-14----------------------------------12--------14-12-14-----14--|
|-------------------------------------------------------------------|
|-------------------------------------------------------------------|


***



Meni Je Lijepo Ja Volim Slijepo

Uvod: Svira se Dm bez prve zice pa Dm F C

C Dm C
Jos jedan prodje dan
Dm C
hladan sivi okean
Dm Bb
kao ukleti brod
C Dm
uranjam u mrak

Da l' si zaspala
il' si u onoj ludackoj
bijeloj kosulji sna
koju sam nosio ja
(Dm pa Dm bez prve zice)
otkada za tebe znam

REF:
F C F
Meni je lijepo
C Bb C F
ja volim slijepo
C F C
barem sam na tren
Am Dm
bio zaljubljen

***



Sampioni

Uvod

Riff
E-------------------------------
H-------------------------------
G----0-3-0-3-0-3-5---0-3-0-3-0--
D--3-0-3-0-3-0-3-5-3-0-3-0-3-0--
A--3---------------3------------
E-------------------------------

4x
E---------------------------
H---------------------------
G----0-3-0-3-0-3-0-3-3-5----
D--3-0-3-0-3-0-3-0-3-3-5-3--
A--3---------------------3--
E---------------------------


Riff 2
E--------------
H--------------
G----2------3--
D--0------3----
A-------1------
E--------------


Riff 3
E------------------------
H------------------------
G------------------------
D--5-5-5-5-5-5-5-5-5--*--
A--3-3-3-3-3-3-3-3-3-----
E------------------------


* - preci trzalicom preko 6.zice

G5
Znoj sa lica otezava dah
G5
Vjetar siba osjeca se strah
C B C B
Miris guma stipa oci,nos
G5
Lude glave postale su skroz

Ref:

Riff 2
Sampioni
Riff 2
Sampioni
Riff 2 Riff 3
Sampioni , aha ,formule

Riff

Na betonu jure svaki dan
Ranom zorom da otresu san
Celicni vozaci formuleee
Usijane glave,blesave

Ref;

Sampioni
Sampioni
Sampioni , aha ,formule

Solo

Riff

Znoj sa lica otezava dah
Vjetar siba osjeca se stra
Miris guma stipa oci,nos
Lude glave postale su skroz

Ref;

Sampioni
Sampioni
Sampioni , aha ,formule

Riff 2x

Kraj
E-------
H-------
G-------
D--5-5--
A--5-5--
E-------


Solo
E—-1/3-3-3-1/3-3-3-1/3-3-1/3-3-3-3-3-1-1/3-3-3-1/3-3-3-3-6-5-4-3--
H—-1/3-3-3-1/3-3-3-1/3-3-1/3-3-3-3-3-1-1/3-3-3-1/3-3-3-3-6-5-4-3--
G-----------------------------------------------------------------
D-----------------------------------------------------------------
A-----------------------------------------------------------------
E-----------------------------------------------------------------


E----------------------------
H—-3\1—-3\1--3\1—-3\1—-3\1---
G-----3----3----3----3----3--
D----------------------------
A----------------------------
E----------------------------


---------------------------------------------------------
---------------------------------------------------------
--0-2p0h2p0h2p0h2p0h2p0h2p0h2p0hg2p02p0h2p0h2p0h2p0h2p0--
---------------------------------------------------------
---------------------------------------------------------
---------------------------------------------------------


E-----------------------------
H------8--6-8--6-8--6-8--6-8--
G—-5/7-7-7--7-7--7-7--7-7--7--
D-----------------------------
A-----------------------------
E-----------------------------


----------------------------------------------------
----------------------------------------------------
--0-3-0-0-5-0-0-5-0-0-7-0-0-5-0-0-8-0-0-7-0-0-10-\--
----------------------------------------------------
----------------------------------------------------
----------------------------------------------------


E—-1/3-3-3-1/3-3-3-1/3-3-1/3-3-3-3-3-1-1/3-3-3-1/3-3-3-3-6-5-4-3--
H—-1/3-3-3-1/3-3-3-1/3-3-1/3-3-3-3-3-1-1/3-3-3-1/3-3-3-3-6-5-4-3--
G-----------------------------------------------------------------
D-----------------------------------------------------------------
A-----------------------------------------------------------------
E-----------------------------------------------------------------


E----------------------------------------------------------------
H—-20h19h18--20h19h18--20h19h18--20h19h18--20h19h18--20h19h18----
G----------19--------19--------19--------19--------19--------19--
D----------------------------------------------------------------
A----------------------------------------------------------------
E----------------------------------------------------------------


E-----------------------------------------------------------
H------8-8-8-8-8-8-8-8-8-8-8-8-8-8--8-6-8-6-6---------------
G—-5/7-7-7-5-7-7-5-7-7-5-7-7-5-7-----------7-7-5-3-5-3-0-3--
D-----------------------------------------------------------
A-----------------------------------------------------------
E-----------------------------------------------------------


E-------------------------------------------------
H-------------------------------------------------
G--3-0-5-0-3-0-5-0-3-3----3-0-5-0-3-0-5-0-3-3-----
D--3-0-5-0-3-0-5-0--5-5-/-3-0-5-0-3-0-5-0--5-5-\--
A-------------------------------------------------
E-------------------------------------------------


E----------------------------------------------------
H—-3\5------5-3--------------8-8-8-8-8-8-8-----------
G—-3\5-3--3-5-3-3-5-3-5—-5/7-7-7-5-7-7-5-7-3-5-3-----
D--------5------3-5-----------------------------5-\--
A----------------------------------------------------
E----------------------------------------------------

E----------------------
H—-5b-\-1-3------------
G----------3-5-3-5-3b--
D----------------------
A----------------------
E----------------------


E------6p3------------------------
H—-6p3----6p3---------------------
G-----5------5p3------------------
D---------------5p3---------------
A------------------5p3---------1--
E---------------------6p3-3p1h3---
***


Jedina moja

Em Am
Pogledaj u moje oci
D Em
Zasto skrivas pogled taj
Em Am
Pogledaj u moje lice
D Em
I pokazi osmjeh svoj


Am C Em
Djevojko u sutonu tihom
D C G
Pokraj rijeke sto koracas
Am C Em
S tuznom sjenom na licu svom
C D Em
I kosom njeznom, i kosom plavom kao lan


G Am
Jedina moja, tebi sviram ja
D Em
Jedina moja, tebi pjevam ja

***






 
M

monitor1100

Član
BICE BOLJE


am
Imao sam losa iskustva
D
s djevojkama svim
C G D
razliku u tome u sebi vidim sad

Bio sam i previse dobar
bas uvijek fin, neiskusan
naivan i mlad

H
I mada sam
G D C
mnogo grijesio
G
sve za redom
D C
prokockao sanse

Ref.
G D C
Ja jos uvijek imam volje
i vjerujem bice bolje
ja jos uvijek imam volje
bice bolje, bice bolje
 
Top