Šta je novo?
Hoyas
LEGEND
Učlanjen(a)
06.06.2009
Poruka
21.097
azra :: tesko vrijeme

Am F Am F
Tesko vrijeme za matore prijatelju moj
Na zidovima nasi tragovi
Mi kruzimo ko psi
Djevojke se ne obaziru za nama
Njihove kose bude sjetu
Dug je put do vjecnosti
I mi ga prelazimo sutke i u miru

C F C F
Hej stari sjeti se i reci mi nesto u njoj
C F G
Hej stari plati gem prijatelj si moj


tesko vrijeme za matore prijatelju moj
uloge su davno podjeljene
i svako ide svojim putem
tateki piju i saplicu dok pjevaju
zene ih zaobilaze na mah
klinci ih rasturaju zbijeni u gomile
oni pljuju glasno i urlaju kao zvijeri

tesko vrijeme za matore prijatelju moj
ljudi postaju nalik na kokosi
slabo vide i rano lijezu
a jutrom zure na kopanje
zbijeni u gomile duhana
dzepova usukanih od znoja dlanova
zalaze svuda i u sve guraju nos
 
Hoyas
LEGEND
Učlanjen(a)
06.06.2009
Poruka
21.097
azra :: the dock of the bay

G H
Sittin' in the mourning sun
C A
I'll be sittin' when the evenin' come
G H
Watchin' the ships roll in
C A
Then I watch 'em roll away again
G E
I'm sittin' on the dock of the bay
G E
Watchin' the ride roll away
G A
Sittin' on the dock of the bay
G E
Wastin' time (Wastin' my time)


G C E G
Look nothing gonna change
G C E G
Ev'rything still remains the same
G C E G
I can't do what what eight people tell me to do
F D
So I gues I'll remain the same

Solo:

E--------------------------------------------------
A--------------------------------------------------
D--------------------------------------------------
G---0--0--------0-----------0--0---------0--------0
H---------1--0-----1--0--3---------1--0-----1--0---
E--------------------------------------------------
 
Hoyas
LEGEND
Učlanjen(a)
06.06.2009
Poruka
21.097
azra :: tko to tamo pjeva

Uvod
E-----------------------------------------------
H-----------------------------------------------
G-----------------------------------------------
D—-6/8-11-10-8-6/8-8-8-8-6/8-11-10-8-6/8-8-8-8--
H—-6/8-11-10-8-6/8-8-8-8-6/8-11-10-8-6/8-8-8-8--
E-----------------------------------------------
2x
E-----------------------------------------------
H-----------------------------------------------
G—-6/8-11-10-8-6/8-8-8-8------------------------
D—-6/8-11-10-8-6/8-8-8-8-6/8-11-10-8-6/8-8-8-8--
H------------------------6/8-11-10-8-6/8-8-8-8--
E-----------------------------------------------

Uvod 2
E--------------------------------
H--------------------------------
G—-8/10--10-10-8—-8/10--10-10-8--
D—-8/10--10-10-8--8/10--10-10-8--
A--------------------------------
E--------------------------------

E-----------------------------------------------
H-----------------------------------------------
G-----------------------------------------------
D—-6/8-11-10-8-6/8-8-8-8-6/8-11-10-8-6/8-8-8-8--
H—-6/8-11-10-8-6/8-8-8-8-6/8-11-10-8-6/8-8-8-8--
E-----------------------------------------------

Riff
E-------------------------
H-------------------------
G-------------------------
D—-6/8-11-10-8-6/8-8-8-8--
H—-6/8-11-10-8-6/8-8-8-8--
E-------------------------

Tekst:

B5
Kamo dalje rodjace,iz pjeska vire krunisane glave
D#5 E#5 Riff 2x
sta to rade ,prde u prasinu

Cini mi se rodjace,da je standard pokvario ljude
jedu govna i sanjare Riff

Ref:

D#m G#
Bice bolje rodjace,skini medalje i napuni sale
D#m B# (F D# C# C)
U ulici trofeja ponestaje sna ge e e e

Ostavljene djevojke,narkomani i bludnice
uzdaju se u tebe

Uvod

Solo
E----------------------------
H----------------------------
G----------------------------
D—-6/8--11--10--8--11--10-8--
A—-6/8--11--10--8--11--10-8--
E----------------------------

E-----------------------
H-----------------------
G-----------------------
D--11--10--8--11--10-8--
A--11--10--8--11--10-8--
E-----------------------

E-----------------------
H-----------------------
G—-11--10--8--11--10-8--
D—-11—-10--8--11--10-8--
A-----------------------
E-----------------------

E-----------------------
H-----------------------
G-----------------------
D--11--10--8--11--10-8--
A--11--10--8--11--10-8--
E-----------------------

Uvod 2

Blindirani brodovi,vozili te na cetiri strane
zbilja si bio dosljedan Riff 2x

Velikodusan rodjace,raspolagati tudjom mukom
nije mala zajebancija Riff

Ref:

Bice bolje rodjace,skini medalje i napuni sale
U ulici trofeja ponestaje sna ge eee

Ostavljene djevojke,narkomani i bludnice
Riff
uzdaju se u tebe
Riff
uzdaju se u tebe
Kraj
uzdaju se u tebe

Kraj

E-----------------4--
H-----------------3--
G--7/9-8-6--------3--
D---------8-6-6-8-3--
H------------8-------
E--------------------
 
Hoyas
LEGEND
Učlanjen(a)
06.06.2009
Poruka
21.097
azra :: tople usne zene

Intro : D A D A D A h G A
D A D A D A h G F#m
A

Hm F#m Hm F#m
Noci su ovdje cudne dileme.
Hm F#m A
Ulicna svjetla rano blijede.
Hm F#m Hm F#m
A u mraku sobe miris kose njene
Hm F#m A
lebdi svuda oko mene.

D A D G A
Noci su ovdje ravnodusne sjene.
D A D (F#m)
Kada spavam zaklanjam lice.

A
D A D A
I uvijek sanjam tople usne zene
D A D G A
kako me ljube, kako me ljube.

D A D A
I uvijek sanjam tople usne zene
D A D
kako me ljube, kako me ljube.
G F#m A
mmmmmm, kako me ljube.


Noci su ovdje nepoznate price.
Gasim cigaru i dizem se dugo.
I nikom ne dam da mi u snove udje.
Uzivam dugo, gledam je kradom.


* intro (i refren) se moze ovako svirat:
7x
e|-------0--------|
B|--3--3-3-2--2---|
G|--2--2-2-3--2---|
D|--0--0-0-0--2---|
A|----------------|
E|----------------|
 
Hoyas
LEGEND
Učlanjen(a)
06.06.2009
Poruka
21.097
azra :: trazi mene (dao sam ti svoju ljubav)

B=H


Uvod:
Am E Am Dm
Am E Am Dm + [E D C B] Am...

Am
K'o da trazis neko lice,
Dm Am
u djelicu ogledala.
C Dm
U prazninu neku davnu,
E Am
sjetno si se zagledala.

K'o da trazis neke ruke,
od samoce grube, ledne.
U bistrini toplih suza,
oci su ti drage, cedne.

E Am
A ja kradom, neprimjetno,
Dm E
zavirujem u sne tvoje.
Am
I posmatram da li gledas,
E Am
moje lice, ruke moje.

INSTR: (uvod::tema)

Dao sam ti svoju ljubav
jer za drugo nemam dara.
Kakva sam to luda bio,
znam da si me progledala.

Dao sam ti svoju ljubav,
misleci da nesto vrijedi.
Nismo isti, shvatio sam,
osjecaj me rijetko vara.

A ja i dalje bezuspjesno, |
razotkrivam tlapnje svoje. |
I nije pravo to sto cine, | x2
protiv mene rijeci moje. |

OUTRO:
|Am |E |Am |Dm |
|Am |E |Am |E | x2
|Am |Dm |Am |E |
 
Hoyas
LEGEND
Učlanjen(a)
06.06.2009
Poruka
21.097
azra :: u 'ajduke

UVOD:
Bass:
[G] [F#] [F] [D]
--------------------------------------- * tonovi u [] zagradama bi bili bass tonovi
--------------------------------------- * akordi bi mogli, a ne moraju, biti:
--------5-----------------------5------ * G : 320003
--3-5/7----2---------1-3-5--------0-2-- * Gmaj7/F# : 3x0032
* Am7/F : 102010
[G] [F#] [F] [D] * D : xx0232
---------------------------------------
---------------------------------------
--------5-----------------------5------
--3-5/7----2---------1-3-1--------0-2--


Gitara 1:
[G] [F#] [F] [D]
------7-----10--7-----12-10-----------------------
--------8-------------------13-10-10h12p10--------
-------------------------------------------11-11--
--9-9---------------------------------------------
--------------------------------------------------
--------------------------------------------------

[G] [F#] [F] [D]
-----7-7-----------------------------------
---------8-8-8-8-7-----8/10-\8--/10--------
--------------------7----------------------
--9----------------------------------------
-------------------------------------------
-------------------------------------------


G D
Imala sam dragoga,
C G
rumenu jabuku.
Em Am
Sad mi nejbor govori,
D G
da on voli drugu.

Biz mi rode iz kuce,
jer ste masininom,
ne sporkaj mi kuzine,
jer ste bristulinom.

Uvod: (gitara bazirana na bass liniji)

Ona hoce pit kafe,
vangu sokoladu.
Ona misli sempjasta,
da se mrtvi kradu.

G D
Cao bela mala moja,
C G
Cao bela mala moja,
Em Am
Cao bela mala moja,
D G
odo u 'ajduke.

Uvod: (gitara bazirana na bass liniji)

Outro == Uvod
 
Hoyas
LEGEND
Učlanjen(a)
06.06.2009
Poruka
21.097
azra :: u stambolu

intro: E Am E Dm C E Am

Am E Dm Am
u stambolu na bosforu
Am E A
bolan pasa lezi
dusa mu je na umoru
crnoj zemlji tezi

Dm G C Am
molitva je njemu sveta
Dm G C Am
a mujezin s minareta
Dm G C E
klice na sav glas

E Am E Dm
alah ilelah
E Am E
selam alejkum

E Am E Dm
E Am E

kad ste vjerno sluge moje
sluzile moj harem
Neka svaki od vas uzme
sedam zena barem

iz oka mu suza kanu
pa na minder mrtav panu
stari hadzija
alah ilelah
selam alejkum

E Am E Dm
E Am E
 
Hoyas
LEGEND
Učlanjen(a)
06.06.2009
Poruka
21.097
azra :: uradi nesto

G Fism Em C G D
uradi nesto za svoju savjest ne misli da si sam
G Fism Em C G D
kreni ostro uzmi stvari u ruke zaboravi na strah

F C D
toliko zena koje traze tvoju pomoc
toliko zena koje sanjare
toliko koje uzdisu tiho G C D
ludnica je oko nas ma hajde


G Fism Em C G D
uradi nesto za svoju nervozu smiri drhtanje
budi kao valentino ne kolebaj se

F C D
nema vremana za bolju buducnost
nema vremena da predahnes
nama vremena da zivis jos jednom G C D
nitko vise nije mlad ma hajde


G Fism Em C G D
uradi nesto to je tvoja duznost mnogo toga znas
nisi glupan takvih isuvise ima ne ocajavaj

F C D
pljuni na svoju facu i postani covjek
nek se cuje i tvoja rijec
pljuni na svoju facu pljuni u oci G C D
ne zabusavaj ma hajde


G Fism Em C G D
uradi nesto za samoga sebe nesto veliko
cuvaj muda zauvijek i svuda drmaj zestoko

F C D
zatvori prolaz za trule moraliste
zatvori prolaz za rogonje
zatvori prolaz za staljiniste G C D
zatvori prolaz za sve ma hajde
 
Hoyas
LEGEND
Učlanjen(a)
06.06.2009
Poruka
21.097
azra :: usne vrele visnje

Am C G F Am
prijehavsi u zagreb zadovoljstva svege rad
Am C G F Am
na djevojku iz hrvaca naletio sam tad

strijele mocne ljubavi pomracile mi um
dah usne vrele visnje nagonio na blud

razmazio sam dragu dao sam joj sve
kad eno nje na drugome e tu bijes me obuze
obezvrijedila mi logiku oskvrnula mi trud
bez milosti me kurva nasukala na sprud

rijec-dve u hladu borova da kvarni vlaski tip
razgovarat sa bludnicom i nije neki cin
no ono sto sam nacuo sledilo me svog
tek izdala me mala draga srcu mom

izgubio sam glavu potegao noz
trgo ga za kragnu isjekao skroz
vodjem slijepim bezumljem sludio me bol
tek nije kuja zalud draga srcu mom

rijesih da se branim da objasnim svoj grijeh
darovali mi robiju a nadu ni za tren
pa iako me proklela razorila mi dom
jos volim malu bestiju dragu srcu mom
 
Hoyas
LEGEND
Učlanjen(a)
06.06.2009
Poruka
21.097
azra :: uzas je moja furka

C G Am
Smrdljivi grad zatvara podrume
C G Am
Smrdljivi grad zatvara ulice
C G Am
Smrdljivi grad je zadovoljan sobom
C G Am
Strukture ga dobro furaju

C G Am
Ooooo Ooooo Ooooo Ooooo

Kosijaneri trule u patikama
Muda im zaprasuju cestu
Guzice spustaju nisko do poda
Kako se oni samo dobro furaju

Ooooo Ooooo Ooooo Ooooo

Smrdljivi grad otvara jeftine bircuze
Za sljakere sto locu ko pesi
Studenti bez diplome, zene bez ljepote, nezenje bez stana
Putnici bez para
Jeftina mjuza teska cuga
Lutrija je njihova furka
Jeftina mjuza teska cuga
uzas je moja furka

Ooooo Ooooo Ooooo Ooooo
 
Top