Šta je novo?
Hoyas
LEGEND
Učlanjen(a)
06.06.2009
Poruka
21.097
Aerodrom

1a_jpg.jpg


:list:



* 24 sata
* bistra voda
* digni me visoko
* fratello
* kad misli mi vrludaju
* laz
* ljubav nije knjiga
* metar vina
* nebo ce uz tebe stati
* obicna ljubavna pjesma
* otkazani let
* stavi pravu stvar na pravo mjesto
* stranac
* tvoje lice
* vatra je na nebu
 
Hoyas
LEGEND
Učlanjen(a)
06.06.2009
Poruka
21.097
aerodrom :: 24 sata

aerodrom :: 24 sata

Intro: F Am C

F Am C
Priznajem, grijesio sam bas kao i svi
F Am C
Znam da sam prepun mana, ali vjeruj mi
Dm Am
Moja ljubav oduvijek je bila
Bb Bbm C
Cista i tebe dostojna.

Zbog nje sam bio spreman se pokoriti
I protiv razuma se svoga boriti
I napustit svoje staro drustvo
Tebi je bilo svejedno.

Ref:
F Am Bb C
Ti nikad nisi saznala
F Am Bb C
Koliko mi je do tebe stalo
Dm Am
Dvadeset i cetri sata dnevno
Bb Bbm C
S tobom je bilo premalo

Solo: F Am C 2x Dm Am Bb Bbm C

Ti uvijek imas pravo se potuziti
Mozda su ti drugi mogli vise pruziti
Ali, vjeruj, kunem ti se
Nikad nisam za cijenu pitao.

Koliko sam puta te na kisi cekao
Kasnila si sate, nisam nista rekao
Za tebe sam htio sve na svijetu
Tebi je bilo svejedno.

Ti nikad nisi saznala
Koliko mi je do tebe stalo
Dvadeset i cetri sata dnevno
S tobom je bilo premalo.


UVOD:
F Am/E C7
-------------------------------|-----------------------------|
---------10-------------10-----|-----------8----8h10h8-------|
-------------10-------------9--|--------9--------------9-----|
-----10-------------10---------|-----8--------------------10-|
--8--------------7-------------|-----------------------------|
-------------------------------|--8--------------------------|

-------------------------------|-----------------------------|
---------10-------------10-----|-----------8----8h10-8h10-8--|
-------------10-------------9--|--------9-------9----9-------|
-----10-------------10---------|-----8-----------------------|
--8--------------7-------------|-----------------------------|
-------------------------------|--8--------------------------|

-------------------------------|-----------------------------|
---------10-------------10-----|-----------8----------8------|
-------------10-------------9--|--------9----------9------9--|
-----10-------------10---------|-----8----------8------------|
--8--------------7-------------|-----------------------------|
-------------------------------|--8--------------------------|

-------------------------------|-----------------------------|
---------10-------------10-----|-----------8-----------------|
-------------10-------------9--|--------9--------------------|
-----10-------------10---------|-----8-----------------------|
--8--------------7-------------|-----------------------------|
-------------------------------|--8--------------------------|
 
Hoyas
LEGEND
Učlanjen(a)
06.06.2009
Poruka
21.097
aerodrom :: bistra voda

aerodrom :: bistra voda

Intro: |D |G | x6
|D | x2
|D |G | x2
|A |

Riff 1:
Em/F# Em Em/D Em/C# Em
|-----------------|------------------| akusticna gitara prebire
|-----------------|------------------| za to vrijeme u ovom stilu:
|-----------------|------------------| H|-----3-----3-----3-
|-4-----2-----0---|-------------2----| G|---0-----0-----0---
|-----------------|-------4----------| D|(4)---(2)---(0)---- itd.
|-----------------|------------------|

D A
Da pospremim u srcu lom
G D
Mrka planina dala mi dom.

(D) A
Jezera sva, ne znam im broj
G D A
U nijednom odraz ja ne vidim svoj

Refren:
D G
Bistra vodo, tko te je zamutio
riff1 D
Neka zna da me je naljutio
G
Bistra vodo, niko ne vidi ti kraj
riff1 D
Primi me, primi u svoj zagrljaj.

(D) A
Leptir na moj spusta se dlan
G D A
Tko od nas dvoje sanja taj san?

Refren

Solo:
|G |D |x2

Riff 2: x2
G
|-----------------|------------------| akusticna gitara prebire
|-----------------|------------------| za to vrijeme u stilu:
|-----------------|------------------| H|-----3-----3-----3-
|-0---------------|------------------| G|---0-----0-----0---
|-------4----2----|------0-----------| D|(0)---------------- itd.
|-----------------|-----------3----2-| A|------(4)---(2)----


|D |G |x2
|A | riff1

Jezera sva...

Refren

riff 1
Bistra vodo! x3


Em riff je ustvari najbolje svirati kao Em pa Em7 020000. Samo se svira
bas melodija preko toga. A moze i Em9 Em Em7 Em6 Em.
 
Hoyas
LEGEND
Učlanjen(a)
06.06.2009
Poruka
21.097
aerodrom :: digni me visoko

aerodrom :: digni me visoko

C G C
uzmi me sa sobom i odvedi me, i odvedi me i odvedi me
G C F-G
digni me visoko da ti ispricam svoje snove sve, svoje snove sve
C G C
u zemlju preko mora gdje su djevojke...
C G C
koje nikad nikom nisu rekle ne...

Em A Em A
al’ ja ipak nisam luda, koja vjeruje u cuda
Em A Dm G
sto se kriju iza mora i gora dalekih

spusti me na zemlju ali oprezno...
hrabar sam al’ necu izazivat zlo...
jer mozda jednog dana ipak uspijem...
samo ako prije se ne napijem...

al’ ja ipak nisam luda...

/ solo /

al’ ja ipak nisam luda...
la-la-la al’ ja ipak nisam luda...
 
Hoyas
LEGEND
Učlanjen(a)
06.06.2009
Poruka
21.097
aerodrom :: fratello

aerodrom :: fratello

Dm E7
Dolje u luci barka me ceka, neka priceka
Gm A7 Dm
jer Amerika je zemlja daleka.

A7 Dm E7 Gm
Zbogom maslinici, zbogom toplo more,zbogom crno vino
A7 Dm
zbogom Serafino i ostala braco .

Dm Gm Dm
Pisi mi brate ououo... pisi mi fratello ououo.../
A7 Dm / x2
poslat cu ti sto ti srce bude htjelo . /


A7 Dm E7 Gm
A na kraju samo, jedno te molim ,zaklinjem te krvlju
A7 Dm
cuvaj ono sto najvise volim .

A7 Dm E7 Gm
Cuvaj mi Rosi i uvijek joj pomozi, mi smo Calabresi,
A7 Dm
Sicilijanesi siamo cosa nostra .

Dm Gm Dm
Pisi mi brate ououo... pisi mi fratello ououo.../
D7 A7 Gm A7 / x2
Pisi mi sto ti srce bude htjelo /

A7 Dm E7
A na kraju samo jedno te molim,
Dm Gm A7 Dm
zaklinjem te krvlju cuvaj ono sto najvise volim./ x2
 
Hoyas
LEGEND
Učlanjen(a)
06.06.2009
Poruka
21.097
aerodrom :: kad misli mi vrludaju

aerodrom :: kad misli mi vrludaju

A5 G D F/A
U kaficu stojim, hladnu coca-colu pijem
C G F C5 G5/H
Prolaznike brojim

Zrak je vruc i tezak, al' ne gubim nadu
Dobro je dok sam u hladu.

Refren:
F C F C
Jer ja ne marim za sve te stvari
F C Bb G
Meni je najbolje kad misli mi vrludaju (2x)

Svi se zure nekud, trce jer umjesto srca
Kucaju im ure
Za to vrijeme ja vec ko zna kuda plovim
Istu stvar po dzepu lovim.

Ref

Koristeni akordi:
EADGBE
------
G 320033
D xx0232
F/A x0321x
G5/H x25xxx
 
Hoyas
LEGEND
Učlanjen(a)
06.06.2009
Poruka
21.097
aerodrom :: laz

aerodrom :: laz

A Am
Laz, stoljecima caruje
E F#
Svoje sluge daruje bogato i besramno
A Am
Laz, zmija je u njedrima
E F#
Plovi punim jedrima, vjesto kamuflirana.

E G#m
Istina je glupi nacin da navuces nevolju
C#
Ne izazivaj zlo
A Am E
Svako u njoj vidi samo iskrivljeno zrcalo
E G#m
Da li ti je jako stalo da pred sobom budes cist
C#
Kakva je draz
A Am E
Ljudi puno vise vole dobro odmjerenu laz.

Laz, stoljecima caruje
Svoje sluge daruje bogato i besramno
Laz, zmija je u njedrima
Plovi punim jedrima, vjesto kamuflirana.

Reci ono sve sto mislis, zadovolji krvnika
Zaradujem
Bezbolnom i brzom smrcu, istinom nagradujem
Prica kaze, jednog dana svi ce biti jednaki
Svako imat ce sve
Samo treba biti strpljiv i vjerovat u drugove.
 
Hoyas
LEGEND
Učlanjen(a)
06.06.2009
Poruka
21.097
aerodrom :: ljubav nije knjiga

aerodrom :: ljubav nije knjiga

Glavna |H |A |E | G|
tema: |H |A |E |E | x4 (kroz cijelu pjesmu osim refrena)


H A E G H A E
Kapci od olova, tonem u prvi san
Al izgleda u krivo vrijeme, tebi se ide van

Vristis po stanu da te ne razumijem
A ja ne znam dal' da spavam ili da te u.ijem


Refren:
F# H F#
Duso, prestani me muciti
C#m/E E F# H F#
Znas da ljubav nije kao knjiga koja moze se nauciti
C#m/E E
Ona uvijek nosi nesto novo
F# H F# C#m G#m H
Poput vjetra koji nikada niko nije uspio uloviti.

Gl. tema x2

U tvojim ocima trza se noc
Tek sa leptirom zore ponovo ces doc'

Ruz ti je na usnama, ne smijem te ljubiti
Plasis me kad sve naucim, da cu te izgubiti.

REFREN

Solo (preko gl.teme x6)

REFREN x4
 
Hoyas
LEGEND
Učlanjen(a)
06.06.2009
Poruka
21.097
aerodrom :: metar vina

aerodrom :: metar vina

C F Dm G C
Popio sam nocas metar vina
F Dm G C
Kaze doktor da mi fali vitamina
F Dm G C
Smotao sam poslije jednu dobru pljugu
F Dm G C
Bas je legla na tu silnu cugu.

C
Pa kaze ...
F Dm G C
Hu hu, hu hu hu hu hu.

Sto je fino kad ti vece krene
Jos da mi je samo dobre zene
Sto je fino puno kad ti vece krene
Jos da mi je samo dobre zene.

D G Em A D
Popio sam nocas metar vina
G Em A D
Kaze doktor da mi fali vitamina
G Em A D
Smotao sam poslije jednu dobru pljugu
G Em A D
Bas je legla na tu silnu cugu.
 
Hoyas
LEGEND
Učlanjen(a)
06.06.2009
Poruka
21.097
aerodrom :: nebo ce uz tebe stati

aerodrom :: nebo ce uz tebe stati

Intro:

/Cijeli bend:/ (2x)
|:C G |C G |D# |F :|

/Klavijature riff:/ (2x)
|:G |F |C |G :|

/Ukljucuje se glavni riff:/ (2 x 8 taktova)

G F
E|-----------------------|----3-------3--3-------|
B|-----------------------|----3-------3--3-------|
G|o----------------------|----0-------0--0-------|
D|o----------------------|--------x--------------|
A|-----------------------|-----------------------|
E|--1--3----3----1--3----|-----------------------|

C G
E|-----------------------|-----------------------|
B|-----------------------|-----------------------|
G|-----------------------|-----------------------|
D|-----------------------|----3---3--2--0--------|
A|-----------------------|-----------------3--0--|
E|--1--3----3----1--3----|-----------------------|

F
E|-----------------------|----3-------3--3-------|
B|-----------------------|----3-------3--3-------|
G|-----------------------|----0-------0--0-------|
D|-----------------------|--------x--------------|
A|-----------------------|-----------------------|
E|--1--3----3----1--3----|-----------------------|

C G
E|-----------------------|------------------------|
B|-----------------------|------------------------|
G|-----------------------|-----------------------o|
D|-----------------------|---2--3--2--3--2--0----o|
A|-----------------------|---------------------1--|
E|--1--3----3----1--3----|------------------------|


/Solo klavijature/ (2 x 4 takta)

G F
Skoro da je tako
C G
Otkako se rodis
Uvijek ne`ko provocira
Zivot koji vodis

Bolje da te mrze
Nego da te zale
Vise vjeruj kada pljuju
Nego kada hvale
F C G
Nego kada hvale


Refren:
C G C G
Korak nek ti bude cvrst
D# F
Nebo ce uz tebe stati
I pokazi srednji prst
Losem glasu sto te prati


/Solo klavijature/ (2 x 4 takta)


Ulica te zove
Ulica te uci
Da za ono sto ti treba
Morat ces se tuci

Pogledaj svog brata
Samog sebe trazi
Uspavan u svijetu koji
Fura se na lazi
Fura se na lazi

Refren


/Glavni riff/ (1 x 8 taktova)

/Klavijature solo/ (8 x 4 takta)

/Glavni riff/ (1 x 8 taktova)

/Cijeli bend/ (2 x 4 takta)


Ulica te zove...

Refren

/Gitara riff/ (2 x 8 taktova) + G - zadnji takt.


---------------------------------------------------------

Cijelo vrijeme se svira |G |F |C |G | osim u intru i refrenu.
 
Top